Oops, an error
Loading. Please wait.

¿dónde Estabas Tu? Tab

version 1
version 1

Whole song

32 views 1 this week
no commentswrite comment
1 2 3 4 5
3 more votes to show rating
add to favorites
×
Save as Personal and add changes to this tab that will be seen only by you. Learn more ›
×
You can save this tab as Personal to edit and correct it or add notes. All changes will be seen only by you. Learn more »
save as personal
new!
launch autoscroll
font size
0
reset
how to read this tab
guitar tuner
Autoscroll
slow
fast
+/-
esc
set tempo
stop
bueno est es el solo de esta rola tan chida los cordes
son del intro:
intro: d--c--d--c
primer estrofa es: d--c-d--c--d--a
el coro es asi: f--c--d--c


e-----10-13--12----------------------------------------
b--10-----------13--10--10--11--10-------------------10
g----------------------------------12--10--9--10--12---


e-----10--13--12-------------------------------------
b--10-----------13--10--10--11--10-------------------
g----------------------------------12--10--9--10--12-

e--------------------------------10----10--11--10------------
b--8--10--11--10--11--13--11--13----13------------13--11-10---
g  ----------------------------------------------------------12


e------------------------------------------
b-10--------10---------10--8--------8------
g---10-7-10----10-7-10-------9----9---9----
d------------------------------10-------10
-----------------------------------------
b--------------------------------------10
g-10-7---7-10-7---7-10-9-10-9-10-9-10---
d----- 8--------8----------------------
esto se repite dos vecs escuchen la rola luego va esto

e-----------10--13--10--13-10-13--12-15-12-15-12-15-13--
b--10-12-13-----------
e--19-17-16-17-19-17-16-17-19-21-21-21-

eso es todo en la ultima parte es un tipo taiping ps
ps lo checan cuando escuchen la rola
ok bueno es todo cualquier duda o aclarcion est es mi correo
wilyboy_x@
ARRIBA EL ROCK  SEÑORES ARRIBA!!!!!

esta chida la rola
Suggest correction
Give kudos to tab author, rate the tab!
1 2 3 4 5
comments
print report bad tab
guest
Wanna post a correction for this tab? Suggest correction