Oops, an error
Loading. Please wait.

¿dónde Estabas Tu? Tab

version 2
version 2

Whole song

14 views 1 this week
no commentswrite comment
1 2 3 4 5
3 more votes to show rating
add to favorites
launch autoscroll
font size
0
reset
how to read this tab
guitar tuner
×
Best way to learn
"¿Dónde Estabas Tu?"
Autoscroll
slow
fast
+/-
esc
set tempo
stop
Bueno que Dios me los bendiga a todos, espero les sirva este puenteo
Esto empieza algo así

e|-----------------------------------------------------------------
B|--5/10-10-10h11---------------------------------------10---------
G|---------------12h14-10h12-9----------------10-9-10-12-----------
D|-----------------------------10--------10-12---------------------
A|-------------------------------12-10-12--------------------------
E|-----------------------------------------------------------------

e|---10------------------------------------------------------------
B|-10--10-13-10--------------------------------------------10h11h10
G|--------------12-10-9-10-9------------------------9-10-12--------
D|--------------------------12-10-12-10-----------10---------------
A|-------------------------------------12-10-10-12-----------------
E|-----------------------------------------------------------------

e|-10-10-10-10--10-10-10-10--10-10-10-10--13-12-10--10-10-10-10---
B|-10-10-10-10--10-10-10-10--10-10-10-10--10-10-10--10-10-10-10---
G|-10-10-10-10--10-10-10-10--10-10-10-10--10-10-10--10-10-10-10---
D|----------------------------------------------------------------
A|----------------------------------------------------------------
E|----------------------------------------------------------------

e|-10-10-10-10--10-10-10-10--8-8-8------------   Este Rasgueo se
B|-10-10-10-10--10-10-10-10--8-8-8------------   repite dos veces
G|-10-10-10-10--10-10-10-10--9-9-9------------   y termina en Dm
D|--------------------------------------------
A|--------------------------------------------
E|--------------------------------------------

e|------13-12--------------------------------------13-12----------
B|-10-11-----11-10-10h11h10-------------------10-11-----11-10-----
G|-------------------------12-10-9-10-12-12b14--------------------
D|----------------------------------------------------------------
A|----------------------------------------------------------------
E|----------------------------------------------------------------

e|----------------------------------------------------10--10-12-10
B|-10h11h10-------------------10--10-11-10-11-13-11-13--13--------
G|---------12-10-9-10-12-10-12--12--------------------------------
D|----------------------------------------------------------------
A|----------------------------------------------------------------
E|----------------------------------------------------------------

e|-12-------------------------------------------------------------
B|---10------10------10-------------------------------------------
G|-----10--10--10--10--12-9--9-12-9--9-12-10------10------10------
D|-------12------12--------10------10-------12--12--12--12--------
A|--------------------------------------------13------13----------
E|----------------------------------------------------------------

e|----------------------------------------------------------------
B|----------------------10-10h11h10-10------10------10------------
G|-9h10h9h10h9h10h9h10h9--------------10--10--10--10--12-9--9-12-9
D|--------------------------------------12------12--------10------
A|----------------------------------------------------------------
E|----------------------------------------------------------------

e|---------------------------------------------------------------
B|------------------------------------------------10-------10-11-
G|---9-12-10------10------10-9h10h9h10h9h10h9h10h9--9-10-12------
D|-10-------12--12--12--12---------------------------------------
A|------------13------13-----------------------------------------
E|---------------------------------------------------------------

Hay viene un poco de heavy, escuchen bien el punteo

e|---12h10h12h10h12h10h12h10-13h12h13h12h13h12h13h12--------------
B|-13-------------------------------------------------------------
G|----------------------------------------------------------------
D|----------------------------------------------------------------
A|----------------------------------------------------------------
E|----------------------------------------------------------------

Luego con el mismo estilo con la vitela tocas las cuerdas B y G
aplastadas en el traste 10 hasta llegar al traste 17, tienes que
escuchar bien el CD para que sepas de lo que te estoy diciendo,
luego viene esto

e|-20-18-17-18-20-18-17-18-20-20/22-20/22-20/22-------------------
B|----------------------------------------------------------------
G|----------------------------------------------------------------
D|----------------------------------------------------------------
A|----------------------------------------------------------------
E|----------------------------------------------------------------

Espero les haya servido este punteo y que Dios los continúe
Bendiciendo, cualquier duda no duden en escribirme, mi email es
jhocreypasma@

Un saludo para todos los hermanos de la Iglesia Pentecostal M.I.
de Playas y los hermanos de Vinces de la Iglesia Luz del Mundo
que siempre me han recibido con los brazos abiertos
Suggest correction
Give kudos to tab author, rate the tab!
1 2 3 4 5
comments
print report bad tab
guest
You may want to rate the tab now too:
select rating
Wanna post a correction for this tab? Suggest correction