Oops, an error
Loading. Please wait.

Lágrimas De Dolor tab

296 views 1 this week
no commentswrite comment
1 2 3 4 5
3 more votes to show rating
add to favorites
×
Save as Personal and add changes to this tab that will be seen only by you. Learn more ›
×
You can save this tab as Personal to edit and correct it or add notes. All changes will be seen only by you. Learn more »
launch autoscroll
font size
0
reset
how to read this tab
guitar tuner
edit
Autoscroll
slow
fast
+/-
esc
set tempo
stop
esa gente aquí les dejo la versión en vivo d esta super canción
esta parte es un poco acelerado,ustedes la dan tantas veces les
paresca.

acordes:verso

4)3-----3...          8-----8
5)1-1-1-1...4-----4...6-6-6-6...3-----3...
6)----------2-2-2-2...          1-1-1-1...
acordes:Pre-coro(acá es lento)
4)----8^----8^-----3^----3^----3^-----8^----8^---------------
5)6-6-6-6-6-6--1-1-1-1-1-1-1-1-1--6-6-6-6-6-6------3^-----4^-
6)---------------------------------------------1-1-1--2-2-2--

4)----8^----8^-----3^----3^----3^-----8^----8^------------
5)6-6-6-6-6-6--1-1-1-1-1-1-1-1-1--6-6-6-6-6-6------3^-----4^-----6^...
6)---------------------------------------------1-1-1--2-2-2--4-4-4....
acordes:coro
4)3-----3...          8-----8
5)1-1-1-1...4-----4...6-6-6-6...-----8------6...
6)----------2-2-2-2...          -6-6-6--4-4-4...
bueno acá les dejo lo que todo mundo esta buscando el solo
pero todo el crédito es de mi pata timo que se saco el ancho
para sacar el solo ustedes ya lo acoplan es un poco yuka
pero ahí les va:
solo:
1)------------------------
2)--------------------6-5-
3)----------------5-4-----
4)---------3-2-5-6--------
5)------3-2---------------
6)-1-3-5------------------

1)---------------------------------------------------
2)---------13-12---------12----------17-13--15-13----
3)--14vr--------12--12-14--14-12--12------14------12-
4)-------14-------14------------14-------------------
5)---------------------------------------------------
6)---------------------------------------------------

1)----------------12-16-15-------16^-
2)-12-----12-13-15--------15-13------
3)---13-14---------------------14----
4)-----------------------------------
5)-----------------------------------
6)-----------------------------------

1)------------------------------------------
2)-----15-15h16vbr-15h16p15-----------15----
3)---13-------------------------15-16---15--
4)-12-------------------------17------------
5)--------------------------17--------------
6)------------------------------------------

1)-------------------------------------------------
2)-16----------------------------------------------
3)---17------------------15^-----------------------
4)-----17-13--15-13-15vbr---15vbr-15-13-15^-15-13--
5)-----------------------------------------------15
6)-------------------------------------------------

1)-----------------------------------------
2)------15h16----------16-18^-18-16-18vbr--
3)-15-17------17vbr--17--------------------
4)-----------------------------------------
5)-----------------------------------------
6)-----------------------------------------

aca es un poco rapido

1)-------------------------8-------------------
2)--------------11-----------9-----------------
3)------------10--10-----------10--8-----------
4)--------8-11------11-8-------------8-6-8vbr--
5)-------8---------------9---------------------
6)--6-8-9--------------------------------------

1)-------------------------------------------18vbr-
2)-------------------------------14-18-14----------
3)-------------------15-------15----------15-------
4)-----8-----------15--15---15---------------------
5)----8--8---13-16--------16-----------------------
6)-6-9-----9---------------------------------------

se repite el inicio del solo y para el final tambien
el inicio del solo se repite 2 veces

el final le metes esto

1)---------------------------
2)---------------------------
3)---------------------------
4)-3---3vbr-------1-3-1h3p1--
5)-1--------1-3-4------------
6)--------------------------- ¡NO A LA GUERRA!!!

y naa eso es todo cuealquier cosa mi correo es
simplemente_aj@ ¡ARRIBA EL HEAVY METAL CARAJOOOOOO!!!!!!
Y TAMBIEN VIVA EL PERU

            
            
Suggest correction
Creating personal tab
Creating personal tab
You can edit any tab online and save it as your Personal.

You can edit, replace or remove any tab part or add personal notes – all changes will be seen only by you.

Personal tabs can be accessed anytime from any device, even offline.
Learn more »
Give kudos to tab author, rate the tab!
1 2 3 4 5
comments
print report bad tab
guest
Wanna post a correction for this tab? Suggest correction