Oops, an error
Loading. Please wait.

Cariñito Tab

version 1
version 1

Whole song

316 views 6 this week
no commentswrite comment
1 2 3 4 5
3 more votes to show rating
add to favorites
launch autoscroll
font size
0
reset
how to read this tab
guitar tuner
Autoscroll
slow
fast
+/-
esc
set tempo
stop
Help us to improve Ultimate-Guitar.com Take our survey!
×
Bajos

1|------------------------------------------
2|------------------------------------------
3|------------------------------------------
4|--5-0-5--3-5-8-0-8--8-0-8--8-10-8-5-0-5---

1|-----------------------------------------
2|-----------------------------------------
3|-----------------------------------------
4|-5-0-5--3-5-8-0-8--8-0-8--8-10-8-5-0-5---

1|---------------------------------------------------
2|---------------------------------------------------
3|---------------------------------------------------
4|-10-12-10-888-10-888-10-888-10-12-10-888-10-888-10-

1|-----------------------------------------------
2|-----------------------------------------------
3|-----------------------------------------------
4888-10-12-10-888-10-888-10-888-8-10-8-55555555--

1ra GUItarra
1|---------------------------------------------
2|---------------------------------------------
3|-7-9-7-5-7-5-7-5v-7-9-7-5-7-5-7-5v-5-7-5-----
4|----------------------------------------7vvv-
5|---------------------------------------------
6|---------------------------------------------

Solo

1|------12-14--12----12----------------------------------12--12-14/16-14v-
2|-12/14----------14----14-12-14v--------------12-14-12----14-------------
3|-------------------------------------11-13-14--------14-----------------
4|-----------------------------------14-----------------------------------
5|------------------------------------------------------------------------
6|------------------------------------------------------------------------

1|-14-16-12-14-11-12-------------------------------------------
2|------------------14-16-12-14-11-12-9-11v--------------------
3|------------------------------------------11--11-13-14-13-14-
4|--------------------------------------------14---------------
5|-------------------------------------------------------------
6|-------------------------------------------------------------

1|---------------------------------------------------------
2|12-12/14-14/12--14/12------------------------------------
3|--------------14-----14v---------------------------------
4|---------------------------------------------------------
5|---------------------------------------------------------
6|---------------------------------------------------------

1|-12/14v-14v-14-12/11--------------------------------------------
2|--------------------14/12/11---12-12/14-12--12v----12-14-12-14--
3|-----------------------------14-----------14----14--------------
4|----------------------------------------------------------------
5|----------------------------------------------------------------
6|----------------------------------------------------------------

1|12-14/16-12-14-16/19vvvvv---------------------------------------
2|----------------------------------------------------------------
3|----------------------------------------------------------------
4|----------------------------------------------------------------
5|----------------------------------------------------------------
6|----------------------------------------------------------------
Am          C         C          E    Am
lloro por quererte, por amrte y por besarte
 Am          C        C          E     Am
sufro por quererte, por amrte y por besarte
 F       C     F        C
hay... cariño hay... mi vida
 E             Am
nunca... pero nunca
       C     E   Am
me abandones cariñito


Am          C                   E
lloro por quererte, por amrte y por besarte
 Am          C                   E
sufro por quererte, por amrte y por besarte
 F       C     F        C
hay... cariño hay... mi vida
 E             Am
nunca... pero nunca
       C     C   Am
me abandones cariñito

Bueno esta canciòn es recontra facil si la escuchas
sobretodo el solo, alguna duda me ewscriben pues,un beso a mi amorcito
 Lizzy a quien dedico esta canciòn aunque no sea muy romantica
que digamos pero prometo que van a venir más canciones para su gusto,
ai shiteru.
Y que viva LIKANO, EN EL CUSCO........EFRA, ANGEL, AMILCAR, ERICK, Y Y
Suggest correction
Give kudos to tab author, rate the tab!
1 2 3 4 5
comments
print report bad tab
guest
You may want to rate the tab now too:
select rating
Wanna post a correction for this tab? Suggest correction