Oops, an error
Loading. Please wait.

Cariñito Tab

version 3
version 3

Whole song

56 views 1 this week
no commentswrite comment
1 2 3 4 5
3 more votes to show rating
add to favorites
×
Save as Personal and add changes to this tab that will be seen only by you. Learn more ›
×
You can save this tab as Personal to edit and correct it or add notes. All changes will be seen only by you. Learn more »
save as personal
new!
launch autoscroll
font size
0
reset
how to read this tab
guitar tuner
Autoscroll
slow
fast
+/-
esc
set tempo
stop
Hola Gente aqui les dejo otra colaboracion del grupo peruano
La Sarita lo unico ke me falta es el solo ps no tuve tiempo
de hacerlo ps solo le corregi la primera parte al solo anterior
y porfavor ke desorejados sonn..!!! escuchen bn la cancion
antes de subirla ps..!!! bueno alli les dejo el TEMA CARIÑITO..!!
a ME olvidaba LOs RIFF 2 y 4 estan al final de la cancion ok
y hay una parte donde pongo (-*-) eso significa ke tienen ke hacer muting
pero a la vez rasgando ok suerte..!!!! y voten..!!!

CARIÑITO
LA Sarita

Intro

6|----2-2-2--2/4/5-5-5--5-5--5/7/5/2-2-2----
5|----4-4-4--4/6/7-7-7--7-7--7/9/7/4-4-4----
4|----4-4-4--4/6/7-7-7--7-7--7/9/7/4-4-4----
3|------------------------------------------

RIFF 1:(repetir2 veces en el intro)
  A                                                       F#5
5|--------------------------------------------------------------
4|---------------------------------------------------------7vvv-
3|-7/9/7/6-7-6-7-6v-7/9/7/6-7-6-7-6v-7/9/7/6-7-6-7-6v-6/7/7-----

F#5          A                   C#5    F#5
Lloro por quererte, por amarte y por desearte

6|--------5-4/5-
5|-----4-2------
4|--4-2---------
3|-2------------

F#5          A                   C#5    F#5
Lloro por quererte, por amarte y por desearte
 D5       A5
hay... cariño

5|---------55-
4|-77-66-55---

 D5       A5
hay... mi vida


 C#5             F#5(RIFF 2)
nunca... pero nunca

       A     C#5   F#5
me abandones cariñito.....(repetir 2 veces)...(RIFF 3)

RIFF 3:

5|-4-4-2/4/5/7/5/4/2-2-0/2/4/5/4/2/0-00-22-444/7/9 -
4|-6-6-4/6/7/9/7/6/4-4-2/4/6/7/6/4/2-22-44-666/9/11-


F#5         A                  C#5        F#5
lloro por quererte, por amarte y por desearte
     A                   C#5       F#5
por quererte, por amrte y por desearte

D5       A5
hay... cariño

5|---------55-
4|-77-66-55---

 D5       A5
hay... mi vida

C#5             F#5(RIFF 2)
nunca... pero nunca

       A     C#5   F#5
me abandones cariñito.....(repetir 2 veces)

RIFF 1(repetir 2 veces)
  A                                                       F#5
5|--------------------------------------------------------------
4|---------------------------------------------------------7vvv-
3|-7/9/7/6-7-6-7-6v-7/9/7/6-7-6-7-6v-7/9/7/6-7-6-7-6v-6/7/7-----

   F#5   F#5   C#5   C#5  (repetir E veces)
6|-2-2-*-2-2-*-x-x-*-x-x--
5|-4-4-*-4-4-*-4-4-*-4-4--
4|-4-4-*-4-4-*-6-6-*-6-6--   ( "-*-" = Muting)
3|-2-2-*-2-2-*-6-6-*-6-6--
2|-2-2-*-2-2-*-4-4-*-4-4--
1|-2-2-*-2-2-*-4-4-*-4-4--

SOLO : F#5-A-C#5-F#5

1|------14------------------------------------------16-14v-----
2|-14-17-17-14-17-14-14v--------------14----17-14-17-----------
3|------------------16--------13-14/16-16-14-------------------
4|-----------------------14-16---------------------------------
5|-------------------------------------------------------------
6|-------------------------------------------------------------

1|-14-16-12-14-11-12-------------------------------------------
2|------------------14-16-12-14-11-12-9-11v--------------------
3|------------------------------------------11--11-13-14-13-14-
4|--------------------------------------------14---------------
5|-------------------------------------------------------------
6|-------------------------------------------------------------

1|---------------------------------------------------------
2|12-12/14-14/12--14/12------------------------------------
3|--------------14-----14v---------------------------------
4|---------------------------------------------------------
5|---------------------------------------------------------
6|---------------------------------------------------------

1|-12/14v-14v-14-12/11--------------------------------------------
2|--------------------14/12/11---12-12/14-12--12v----12-14-12-14--
3|-----------------------------14-----------14----14--------------
4|----------------------------------------------------------------
5|----------------------------------------------------------------
6|----------------------------------------------------------------

1|12-14/16-12-14-16/19vvvvv---------------------------------------
2|----------------------------------------------------------------
3|----------------------------------------------------------------
4|----------------------------------------------------------------
5|----------------------------------------------------------------
6|----------------------------------------------------------------

D5       A5
hay... cariño

5|---------55-
4|-77-66-55---

 D5       A5
hay... mi vida

C#5             F#5(RIFF 2)
nunca... pero nunca

       A     C#5   F#5
me abandones cariñito (repetir 2 veces)

          A     C#5   F#5 (RIFF 4)
no me avandones cariñito  ............(repetir 2 veces)

RIFF 5:

5|-4-4-2/4/5/7/5/4/2-2-0/2/4/5/4/2/0-
4|-6-6-4/6/7/9/7/6/4-4-2/4/6/7/6/4/2-

   F#5   F#5   C#5   C#5   A/B/C#-F#.......
6|-2-2-*-2-2-*-x-x-*-x-x---x/x/x-2~~~
5|-4-4-*-4-4-*-4-4-*-4-4---x/x/x-4~~~
4|-4-4-*-4-4-*-6-6-*-6-6---2/4/6-4~~~
3|-2-2-*-2-2-*-6-6-*-6-6---2/4/6-2~~~
2|-2-2-*-2-2-*-4-4-*-4-4---2/4/6-2~~~
1|-2-2-*-2-2-*-4-4-*-4-4---x/x/x-2~~~


FIN..!!!

                    ======= o =========

RIFF 2:
4|-------7-4-7-----------7-4-
3|-4/6/4------4/6-4--4/6----
2|---------------5----------

RIFF 4:

4|------------7-4-
3|-4/6-4--4/6-----
2|----5-----------

Les vuelvo a recalcar ke les debo el "SOLO" solo llegue
a corregir la primera tablatura de un solo anterior
xk no tenia tiempo ps las clases jejeje ok cualkier duda
solo me escriben..!!!!
espero k se diviertan rolleando..!!!
Suggest correction
Give kudos to tab author, rate the tab!
1 2 3 4 5
comments
print report bad tab
guest
Wanna post a correction for this tab? Suggest correction