Oops, an error
Loading. Please wait.

Más Poder Tab

48 views 1 this week
no commentswrite comment
1 2 3 4 5
3 more votes to show rating
add to favorites
launch autoscroll
font size
0
reset
how to read this tab
guitar tuner
Autoscroll
slow
fast
+/-
esc
set tempo
stop
Help us to improve Ultimate-Guitar.com Take our survey!
×
Olaz totalez; envio esta transcripcion de esta estupenda cancion,
esta es mi version de la cancion , aya ustedes si les parece.
weno aqui les va y disfruten del rock peruano!

eL rOck es ccUltura1


Intro: El rasgueo la sacan con la cancion

e|---------------------------------------
B|---------------------------------------
G|---------------------------14----------
D|-14-14-14-14-12s-14-14-x-x-14-12-------  (x9)
A|-14-14-14-14-12s-12-14-x-x-12-12------
E|-12-12-12-12-10s-12-12-x-x----10-------

(al quinto rasgueo entra este punteo entra de golpe estos acordes:)

E5-G#5-B5

y luego este punteo junto con el rasguep :

e|---------------------------------------------
B|---------------6-----------------------------
G|-9-7-9-7-4-4-*7---9-7-9-7-4-4-7-4-2-7-9-7-4-4-  (bis) a partir
D|---------------------------------------------   del (*)
A|---------------------------------------------
E|---------------------------------------------   ell final ustedes
                                                  lo pueden improvisar


En el verso y coro Jueguen con estos 2 acordes:

E-Am


Punteo del coro:

e:----------------------------------
B:-----------------6----------------
G:-9-7-9-7-5---5-7---7-9-9-7-9-7-5--  (cuando termina se repite
D:-----------*7---------------------   A partir de (*) )
A:----------------------------------
E:----------------------------------

antes del solo rasguee fuerte A5
Y UN pequeñisimo punteo al final
de esta parte

E|--5-3-0-5-3-0-5-3-0

Solo:

e:---------------------------------------------
B:---------------------------------------------
G:--------------------------8-9--------- 5-6-7
D:-6/8-7/9-8/10-7/9-6/8-6-7-----8-7-6----------
A:---------------------------------------------
E:----------------------------------------------

e:---------------------------------------------
B:---------------------------------------------
G:--------------------------8-9-----------5-6-7
D:-6/8-7/9-8/10-7/9-6/8-6-7-----8-7-6----------
A:---------------------------------------------
E:---------------------------------------------


final solo
e:----------------------------------
B:--5-6-7-5-6-7-5-6-7-------------------------
G:---------------------------------
D:----------------------5-6-7---------
A:----------------------5-6-7---------
E:----------------------3-4-5----------

tengo todo el poder..
tengo todo el poder..
tengo todo el PODER!!

CORO

cuando se pone rapido la parte "QUE TENIA PODER!!"
hay un pequeño punteo..

A|------------------2---
E|--5-5-3-1-0-0-0-4-----  (6X)

luego

D|-2-2-------|----------|-2-2-----------
A|-----5-3-2-|-0-0-2-3-0|-----5-3-2-----
E|-----------|----------|---------------

deja sonar la baetria

D|---------------|-----0|--5-6---      -7-!!------
A|---------------|-3-4--|--5-6---  HEY!-7-!!------
E|-5-3-0-5-3-0-5-|------|--3-4---      -5-!!------


PODER!!!!

viva el rock peruano karajo!!!!!!!!


gracias
Suggest correction
Give kudos to tab author, rate the tab!
1 2 3 4 5
comments
print report bad tab
guest
You may want to rate the tab now too:
select rating
Wanna post a correction for this tab? Suggest correction