Oops, an error
Loading. Please wait.

Dulce Obseción Tab

14 views 1 this week
no commentswrite comment
1 2 3 4 5
3 more votes to show rating
add to favorites
launch autoscroll
font size
0
reset
how to read this tab
guitar tuner
Autoscroll
slow
fast
+/-
esc
set tempo
stop
   (Dedicada a Gabriela Loo y a the nurse de san luis potosi)

La canción se toca con G A B en los versos y en los coros B D G F#

(/) slide
(.) significa que se tocan con pal mute los acordes


La canción comienza con este arreglo de teclado:

6:------------------------------------|
5:------------------------------------|
4:-9---------5--------7-7--------7----|
3:---11--------7----------9----9------|
2:------12-------8----------10--------|
1:------------------------------------|

                                       6:------------------|
                                       5:------------------|
En la 2 vuelta se hace esto 1 vez      4:-9--9----5-5---7/-|
                                       3:-11-11---7-7---9/-|
                                       2:------------------|
                                       1:------------------|

                       .  .   . .  .  .    .  . . .  . . .
                    6:---------------------------------------|
                    5:---------------------------------------|
Después sigue esto: 4:--9--9---7-7--9--9----7--7-7-7--7-7-5--|3 veces
                    3:--11-11--9-9--11-11---5--5-5-5--9-9-7--|
                    2:---------------------------------------|
                    1:---------------------------------------|


Durante el primer verso se toca lo siguiente

    .  .    . .   .  . . .  .  .   .
6:------------------------------------
5:------------------------------------
4:--9--9----5-5---9--9-9-9--9--9---9--
3:--11-11---7-7---7--7-7-7--11-11--7--
2:------------------------------------
1:------------------------------------

Terminando el primer verso sigue

    ........  ........  ........  ........
6:|---------------------33333333--22222222--|
5:|-22222222--55555555--55555555--44444444--|
4:|-44444444--77777777--55555555--44444444--|
3:|-44444444--77777777----------------------|
2:|-----------------------------------------|
1:|-----------------------------------------|


         6:|---------------------33333333--22222222--|
         5:|-22222222--55555555--55555555--44444444--|
 Coro:   4:|-44444444--77777777--55555555--44444444--|
         3:|-44444444--77777777----------------------|
         2:|-----------------------------------------|
         1:|-----------------------------------------|

                           .  .   . .  .  .    .  . . .  . . .
                       6:---------------------------------------|
                       5:---------------------------------------|
Se repite esto 2 veces 4:--9--9---7-7--9--9----7--7-7-7--7-7-5--|
                       3:--11-11--9-9--11-11---5--5-5-5--9-9-7--|
                       2:---------------------------------------|
                       1:---------------------------------------|

siguiente verso solo se escucha el bajo, bateria y teclado
casi al final del verso entra de nuevo

    .  .    . .   .  . . .  .  .   .
6:------------------------------------
5:------------------------------------
4:--9--9----5-5---9--9-9-9--9--9---9--
3:--11-11---7-7---7--7-7-7--11-11--7--
2:------------------------------------
1:------------------------------------

Después sigue el Coro

         6:|---------------------33333333--22222222--|
         5:|-22222222--55555555--55555555--44444444--|
 Coro:   4:|-44444444--77777777--55555555--44444444--|
         3:|-44444444--77777777----------------------|
         2:|-----------------------------------------|
         1:|-----------------------------------------|

Luego entra un solo de bajo


Y finalmente de nuevo el coro

         6:|---------------------33333333--22222222--|
         5:|-22222222--55555555--55555555--44444444--|
         4:|-44444444--77777777--55555555--44444444--|
         3:|-44444444--77777777----------------------|
         2:|-----------------------------------------|
         1:|-----------------------------------------|


Sugerencias y comentarios: mercy_gmj@
Suggest correction
Give kudos to tab author, rate the tab!
1 2 3 4 5
comments
print report bad tab
guest
Wanna post a correction for this tab? Suggest correction