Oops, an error
Loading. Please wait.

La Musa Y El Espíritu Tab

67 views 1 this week
no commentswrite comment
1 2 3 4 5
3 more votes to show rating
add to favorites
launch autoscroll
font size
0
reset
how to read this tab
guitar tuner
×
Best way to learn
"La Musa Y El Espíritu"
Autoscroll
slow
fast
+/-
esc
set tempo
stop
INTRO
Esta parte del intro se toca rápido
E----------------------------------------|
a----------------------------------------|
d-7--------------------------------------| x 2
g---7-6-7---7----------------------------|
b---------5---5-6-5-6-8-6-8---8--------10|
e---------------------------5---5-6-10---|

E------------------------------|
a------------------------------|
d------------------------------|
g-----------------7---------7-6|
b----6-5-------5------8--5-----|
e-6-------6-5-------5----------|

E----------------------------------------------------|
a----------------------------------------------------|
d----------------------------------------------------|
g-7-6-7---7-----------------------------7---------7-6|
b-------5---5-6-5-6-8------6-5-------5------8--5-----|
e---------------------5-6-------6-5-------5----------|

E----------------------------------------------------|
a----------------------------------------------------|
d----------------------------------------------------|
g-7-6-7---7------------------------------------------|
b-------5---5-6-5-6-8-6-8---8---------11--10--8--6--5|
e-------------------------5---5-6-10-----------------|


Dm          C
Desde la infancia
      F             Gm
devoción de amor emanaba
Dm     C
Almas unidas
          F           Gm   A-A#
que la enfermedad separaba...


A#       Gm       F        C
dos vidas mermadas en soledad
A#      Gm       F               A7
se aman, se miman sin poderse rozar


Dm       C
Bebes recuerdos
     F                  Gm
afloran los tiernos momentos
Dm       C
y en tus sueños
      F               Gm     A-A#
hablas con él sobre un reencuentro


A#     Gm        F             C
no temas, no llores, me encuentro bien
A#     Gm       F                   A7
mi vida, tranquila, Cada noche yo vedré...


Dm               A#
mientras recorro los rí¬os, los valles,
      F                 C
los cielos, las nubes y los siete mares
Dm         A#
seguiré por ti esperando,
   F                     C
¡¡¡mi vida no llores que te estoy mirando!!!


Dm                A#
hago castillos de arena en la luna,
  F             C
dibujo sonrisas en nuestra amargura...
Dm        A#
relatos de mis suspiros
       F            C        Dm   Am-A#-C
que en la medianoche compartiré contigo...


INTERMEDIO

E------------------------------------------------|
a------------------------------------------------|
d--------------7-7---------8-8-------------------|
g-7-7--------------4p6p7-------5-7---------7---5-| x4
b-----5p6p8--------------5---------5-6-6-5---5---|
e-----------5------------------------------------|

E--------------------------------------------------------------------|
a--------------------------------------------------------------------|
d--------------------------------------------------------11----------|
g---7---7---7------------------------12-10-------12-10-9-------9-----|
b--------------------11-10--10-11-10-------11-10------------10----11-|
e-5---5---5---5-10-9--------------------------------------------9----|

E--------------------------------------------------------------------|
a--------------------------------------------------------------------|
d--------------------------------------------------------------------|
g---7---7----7-----------------------12-10-------12-10-----12--10--9-|
b---------------------11-10--10-11-10------11-10-------10------------|
e-5---5---5----5-10-9------------------------------------------------|

E--------------------|
a--------------------|
d--------------7-----|
g------------5---5-7-| x3
b-8/10-8-6/5---------|
e--------------------|

E-------------------|
a-------------------|
d---7---7-----------|
g-7---7---9-9-9-7-5-|
b-------------------|
e-------------------|


Dm      C
a las estrellas
     F                 Gm
les comento cómo es el sol,
Dm       C
al sol le cuento
       F          Gm-A-A#
la grandeza de nuestro amor...


A#    Gm      F           C
espero viejita que seas feliz.
A#        Gm            F             A7
no hay prisa, más tarde nos hallaremos al fin


Dm               A#
mientras recorro los rí¬os, los valles,
      F                 C
los cielos, las nubes y los siete mares
Dm         A#
seguiré por ti esperando,
   F                      C
¡¡¡mi vida no llores que te estoy mirando!!!


Dm                 A#
hago castillos de arena en la luna,
  F             C
dibujo sonrisas en nuestra amargura...
Dm          A#
relatos de mis suspiros
       F          C         Dm   Am-A#-C
que en la medianoche compartiré contigo...


E----------------------------------------|
a----------------------------------------|
d-7--------------------------------------| x 2
g---7-6-7---7----------------------------|
b---------5---5-6-5-6-8-6-8---8--------10|
e---------------------------5---5-6-10---|

E------------------------------|
a------------------------------|
d------------------------------|
g-----------------7---------7-6|
b----6-5-------5------8--5-----|
e-6-------6-5-------5----------|

E----------------------------------------------------|
a----------------------------------------------------|
d----------------------------------------------------|
g-7-6-7---7-----------------------------7---------7-6|
b-------5---5-6-5-6-8------6-5-------5------8--5-----|
e---------------------5-6-------6-5-------5----------|

E----------------------------------------------------|
a----------------------------------------------------|
d----------------------------------------------------|
g-7-6-7---7------------------------------------------|
b-------5---5-6-5-6-8-6-8---8---------11--10--8--6--5|
e-------------------------5---5-6-10-----------------|
Suggest correction
Give kudos to tab author, rate the tab!
1 2 3 4 5
comments
print report bad tab
guest
You may want to rate the tab now too:
select rating
Wanna post a correction for this tab? Suggest correction