Oops, an error
Loading. Please wait.

Por Que Estás Triste Chords

21 views 1 this week
no commentswrite comment
1 2 3 4 5
3 more votes to show rating
add to favorites
launch autoscroll
font size
0
reset
transpose
0
reset
display chords
guitar tuner
×
Best way to learn
"Por Que Estás Triste"
Autoscroll
slow
fast
+/-
esc
set tempo
stop
Espero les guste
Sugerencias, abucheos, comentarios y demas a:
juanmanuelv@


INTRO

E|--7--------7--5--7--------7--3--2-----0--2--0--
B|-----0--------------0--------------3-----------
G|--------0--------------0-----------------------
D|-----------------------------------------------
A|-----------------------------------------------
E|--0--------------------------------------------

E|-----0--2--2-----------2-----2-----2--------3--2-----0--------0-----0--------
B|-----0--------3-----3-----3-----3-----3-----------3-----0--------0-----0-----
G|-----0-----------2-----------------------2-----------------0--------------0--
D|-----2-----0-----------------------------------------------------------------
A|-----2-----------------------------------------------------------------------
E|--0--------------------------------------------------------------------------

Em                    D 
Por que estas triste, dime por que
                Em
veo en tus ojos pena y dolor
                 D 
que negras nubes tapan tu sol
                 Em
siento llover en tu corazón


        G         D 
Por que tan lejos miras por que
                    Em
o es que presientes algo fatal
         G      D 
no llores niña me haras llorar
                 Em
y nuestro llanto nos ahogara


          D             Em
No llores vida me haras llorar
          D             Em
no llores niña me haras llorar


Em                D 
Se que en la vida hay que luchar
                Em
y siendo pobres con una cruz
                D 
pero tu amor mi amor valen mas
              Em
por eso digo no sufras mas


            G      D 
Si es por el hijo que estas asi
                 Em
seca esa lagrima ya llegara
          G    D 
y en sus ojos nos traera
           Em
una mirada llena de amor


        D               Em
Pero no llores me haras llorar (bis 3 veces)
Suggest correction
Give kudos to tab author, rate the tab!
1 2 3 4 5
comments
print report bad tab
guest
You may want to rate the tab now too:
select rating
Wanna post a correction for this tab? Suggest correction