Oops, an error
Loading. Please wait.

No Aguanto Más Tab

41 views 1 this week
no commentswrite comment
1 2 3 4 5
3 more votes to show rating
add to favorites
×
Save as Personal and add changes to this tab that will be seen only by you. Learn more ›
×
You can save this tab as Personal to edit and correct it or add notes. All changes will be seen only by you. Learn more »
save as personal
new!
launch autoscroll
font size
0
reset
how to read this tab
guitar tuner
Autoscroll
slow
fast
+/-
esc
set tempo
stop
bueno aca les dejo bien como es el tema
disfrutenlo ;)

y aguante el Seba Mendoza!


G                          D
 Creo que tenemos que charlar,
                           B7
Quiero que me digas la verdad
             C
Porque me haces mal

G                       D
 Si ya no te sirvo mátame,
                       B7
pero no confundas el amor,
                         C
con una estúpida , obsesión,
          G            D
Si ya no soy Tu Gran Amor
          C    D
Mejor me voy  oooh


e|----7--8--7-----7--8--8--7--|---7--8--7-----7--8--8--7-|
B|----8-----------8-----------|---8-----------8----------|
G|----7-----------7-----------|---9-----------9----------|  Repite x2
D|----------------------------|--------------------------|
A|----------------------------|--------------------------|
E|----------------------------|--------------------------|
             G                        Em


  (aqui va arpegiado)    Repite x2
e|----------0----|---------------| |---------------------|
B|--------3------|--------0------| |--1--0---------------|
G|------2--------|------0--------| |--------2--0---------|
D|----0----------|----2----------| |---------------------|
A|---------------|--3------------| |---------------------|
E|---------------|---------------| |---------------------|
         D                C


G                          D
 Creo que tenemos que charlar,
                          B7
Quiero que me digas la verdad
             C
Porque me haces mal,
G                       D
 Y no me parece muy normal,
                           B7
Siempre que te llamo te negas,
                        C
Y si te busco, nunca estas

G                       D
 Si ya no te sirvo mátame,
                       B7
Pero no confundas el amor,
                       C
con una estúpida obsesión,

G                     D
 Hacete valer como mujer,
                         B7
Yo te quiero mucho lo sabes,
                    C
Pero conmigo no jugues,
          G             D
Si ya no soy, Tu Gran Amor
          C      D     Em
mejor me voy ...oooh


         D  Em                                 D
No Aguanto Mas, andate, no vuelvas, dejame en paz
                           C
Porque Tus Mentiras Me Hacen Mal
                   G     D   Em
Prefiero Quedarme Solo, Solo


         D  Em                                 D
No Aguanto Mas, andate, no vuelvas, dejame en paz
                          C
Porque Tus Mentiras Me Hacen Mal
                   G     D    G
Prefiero Quedarme Solo, Soloo


e|----7--8--7-----7--8--8--7--|---7--8--7-----7--8--8--7-|
B|----8-----------8-----------|---8-----------8----------|
G|----7-----------7-----------|---9-----------9----------|  Repite x2
D|----------------------------|--------------------------|
A|----------------------------|--------------------------|
E|----------------------------|--------------------------|
             G                        Em


  (aqui va arpegiado)    Repite x2
e|----------0----|---------------| |---------------------|
B|--------3------|--------0------| |--1--0---------------|
G|------2--------|------0--------| |--------2--0---------|
D|----0----------|----2----------| |---------------------|
A|---------------|--3------------| |---------------------|
E|---------------|---------------| |---------------------|
         D                C
Suggest correction
Give kudos to tab author, rate the tab!
1 2 3 4 5
comments
print report bad tab
guest
Wanna post a correction for this tab? Suggest correction