Oops, an error
Loading. Please wait.

Te Extrañare Tab

version 1
version 1

Whole song

19 views 1 this week
no commentswrite comment
1 2 3 4 5
3 more votes to show rating
add to favorites
×
Save as Personal and add changes to this tab that will be seen only by you. Learn more ›
×
You can save this tab as Personal to edit and correct it or add notes. All changes will be seen only by you. Learn more »
save as personal
new!
launch autoscroll
font size
0
reset
how to read this tab
guitar tuner
Autoscroll
slow
fast
+/-
esc
set tempo
stop
Intro:
1|--11-11-11-11---------------------12-12-12-12-11----------------|
2|-12-----------14-12-11-12-11-----12--------------14-12-14-12----|
3|-----------------------------13------------------------------15-| x4
4|----------------------------------------------------------------|
5|----------------------------------------------------------------|
6|----------------------------------------------------------------|


     D               A
Hoy que no tengo tu cariño
       G                       Bm
estoy solo llorando como un niño
     D               A
te alejas y no te importa nada
       G                       Bm
y pensar que contaba yo contigo.

     D               A
Pero no, se que no volveras
       G                       Bm
porque eres linda hoy te sobra el amor
     D               A
porque tienes un juguete mas 
       G                       Bm
sufriendo esta mañana sentiras dolor.

     D               A
Pero no, se que no volveras
       G                       Bm
porque eres linda hoy te sobra el amor
     D               A
porque tienes un juguete mas 
       G                       Bm
sufriendo esta mañana sentiras dolor
    A
como yo.

Intro

     D               A
Hoy que no tengo tu cariño
       G                       Bm
estoy solo llorando como un niño
     D               A
te alejas y no te importa nada
       G                       Bm
y pensar que contaba yo contigo.


     D               A
Pero no, se que no volveras
       G                       Bm
porque eres linda hoy te sobra el amor
     D               A
porque tienes un juguete mas 
       G                       Bm
sufriendo esta mañana sentiras dolor.

     D               A
Pero no, se que no volveras
       G                       Bm
porque eres linda hoy te sobra el amor
     D               A
porque tienes un juguete mas 
       G                       Bm
sufriendo esta mañana sentiras dolor
    A
como yo.

1|--11-11-12-14---------------12-14-16--------------|
2|-12-----------14-12-12-11--12---------17-16-16-14-|
3|--------------------------------------------------| x2
4|--------------------------------------------------|
5|--------------------------------------------------|
6|--------------------------------------------------|


D               A
Te extrañare y llorare
     G                       Bm
porque te quize siempre te recordare
  D               A
pero veras que un dia amaras
    G                       Bm
y todos tus caprichos juntos pagaras
D               A
te extrañare y llorare
    G                       Bm
porque te quize siempre te recordare
  D               A
pero veras que un dia amaras
    G                       Bm
y todos tus caprichos juntos pagaras
   D               A
pagaras por mentirosa
      G            Bm
sufriras por caprichosa
   D               A
pagaras por mentirosa
      G            Bm
sufriras por caprichosa
Suggest correction
Give kudos to tab author, rate the tab!
1 2 3 4 5
comments
print report bad tab
guest
Wanna post a correction for this tab? Suggest correction