Oops, an error
Loading. Please wait.

Te Extrañare Tab

version 2
version 2

Whole song

8 views 1 this week
no commentswrite comment
1 2 3 4 5
3 more votes to show rating
add to favorites
launch autoscroll
font size
0
reset
how to read this tab
guitar tuner
Autoscroll
slow
fast
+/-
esc
set tempo
stop
Help us to improve Ultimate-Guitar.com Take our survey!
×
(Mandale balín)
(intro)

    B                       G#m      E                       F#
e|---11-11-11-11-9----------------|---12-12-12-12------------------||
B|--12-------------12-11-11-------|--12----------16-14-12-12-11-11-||
G|-11-----------------------13-13-|-13-----------------------------||
D|--------------------------------|--------------------------------||
A|--------------------------------|--------------------------------||
E|--------------------------------|--------------------------------||

Ahora el teclado hace lo mismo, y la guitarra sube de tono
(sobre la misma nota), quedaria asi:

     B                       G#m      E                        F#
e|---14-14-14-14-------------------|---16-16-16-16-14----------------||
B|--16-----------17-16-14-14-------|--17--------------17-16-16-14-14-||
G|-16------------------------16-16-|-16------------------------------||
D|---------------------------------|---------------------------------||
A|---------------------------------|---------------------------------||
E|---------------------------------|---------------------------------||

    B                    G#m
Hoy que no tengo tu cariño
     E                       F#
Estoy solo y llorando como un niño
    B                    G#m
Te alejas y no te importa nada
     E                       F#
Y pensar que contaba yo contigo

RIFF 1:
e|------9---------||
B|-9/11---11-9----||
G|-------------11-||
D|----------------||
A|----------------||
E|----------------||

    B                    G#m
Pero no, se que no volverás
     E                       F#
Porque eres linda o te sobra el amor
    B                    G#m
Porque tienes un juguete más
     E                       F#
Sufriendo esta mañana sentirás dolor

(Riff 1)

    B                    G#m
Pero no, se que no volverás
     E                       F#
Porque eres linda o te sobra el amor
    B                    G#m
Porque tienes un juguete más
     E                       F#
Sufriendo esta mañana sentirás dolor como yo

(Repite la intro)


    B                    G#m
Hoy que no tengo tu cariño
     E                       F#
Estoy solo y llorando como un niño
    B                    G#m
Te alejas y no te importa nada
     E                       F#
Y pensar que contaba yo contigo

(Riff 1)

    B                    G#m
Pero no, se que no volverás
     E                       F#
Porque eres linda o te sobra el amor
    B                    G#m
Porque tienes un juguete más
     E                       F#
Sufriendo esta mañana sentirás dolor

(Riff 1)

    B                    G#m
Pero no, se que no volverás
     E                       F#
Porque eres linda o te sobra el amor eh
    B                    G#m
Porque tienes un juguete más
     E                       F#
Sufriendo esta mañana sentirás dolor como yo...

    B                     G#m       E                    F#
e|---11-11-13/14----------------|---12-12-15/16---------------||
B|--12-----------12-11-11/12----|--12-----------14-12-12/14---||
G|-11------------------------13-|-13-----------------------15-||
D|------------------------------|-----------------------------||
A|------------------------------|-----------------------------||
E|------------------------------|-----------------------------||

    B                 G#m
Te extrañare y llorare
     E                       F#
Porque te quise siempre te recordare
    B                 G#m
Pero veras, a mi amaras
     E                       F#
Y todos tus caprichos juntos pagaras


    B                G#m
Te extrañare y llorare
     E                       F#
Porque te quise siempre te recordare
    B                  G#m
Pero veras, a mi amaras
     E                       F#
Y todos tus caprichos juntos pagaras


    B               G#m
Pagaras por mentirosa
     E                F#
Sufrirás por caprichosa

    B               G#m
Pagaras por mentirosa
     E                F#
Sufrirás por caprichosa.

_____________________________________________________________________________

              Trascripción por Milton - Copyright 2004
___________________________________________________________________Te quedo?_

  Alto tema, según yo...el mejor tema de Sebastián Mendoza.
  Dedicado pá toda la vagancia del Cuba, para el negro, para stella, para
  el dogui, para fede, para leo, para el pocho y para Perrota.
  Un saludo para Gian y haber si lo practicas eh!
  Espero ke les haya gustado esta transcripcion.

(No te lo digo dos, ni te repito tres...Diego traeme el CD!!!)
Suggest correction
Give kudos to tab author, rate the tab!
1 2 3 4 5
comments
print report bad tab
guest
You may want to rate the tab now too:
select rating
Wanna post a correction for this tab? Suggest correction