Oops, an error
Loading. Please wait.

Cuando No Queda Nada Tab

133 views 1 this week
no commentswrite comment
1 2 3 4 5
3 more votes to show rating
add to favorites
×
Save as Personal and add changes to this tab that will be seen only by you. Learn more ›
×
You can save this tab as Personal to edit and correct it or add notes. All changes will be seen only by you. Learn more »
save as personal
new!
launch autoscroll
font size
0
reset
how to read this tab
guitar tuner
Autoscroll
slow
fast
+/-
esc
set tempo
stop
Para todos los que han pedido esta canción en la cuerda, aquí esta!!
Aclaro que ésta rola no es como las que muchas muchas
personas acostumbran a subir por su facilidad.
((y que a mi me da un poco de pereza))

PERO ESTA VALE LA PENA!!!

Escuchen la canción muy bien pues tiene un ritmo un poco complejo.


Cmaj7/D
E|-----------------5-------------------------------5------------
A|-5----------------------3--------5----------------------5-----
D|----------x---5---------------------------x---5---------------
G|-----4----x---4-----0-------0--------4----x---4-----4------4--
B|-----5----x---5-----5-------5--------5----x---5-----5------5--
e|-----0----x---0-----0-------0--------0----x---0-----0------0--
 Ahórrate el drama por favor que a mi no me trama tu actuación,


   Cmaj7
E|---------------------------------3-----------------------------
A|---3-----------------------------------------------------------
D|---------x---5---x---5---x---5-------5---x---5---x---5---x---5-
G|-----4---x---4---x---4---x---4-------4---x---4---x---4---x---4-
B|-----5---x---5---x---5---x---5-------5---x---5---x---5---x---5-
e|-----0---x---0---x---0---x---0-------0---x---0---x---0---x---0-
 no sirve...............ya no hay razón


 Cmaj7/D
E|-----------------5-------------------------------5------------
A|-5----------------------3--------5----------------------5-----
D|----------x---5---------------------------x---5---------------
G|-----4----x---4-----0-------0--------4----x---4-----4------4--
B|-----5----x---5-----5-------5--------5----x---5-----5------5--
e|-----0----x---0-----0-------0--------0----x---0-----0------0--
 tanta indiferencia me mató    mi pobre  inocencia  se  dejó


   Cmaj7
E|---------------------------------3-----------------------------
A|---3-----------------------------------------------------------
D|---------x---5---x---5---x---5-------5---x---5---x---5---x---5-
G|-----4---x---4---x---4---x---4-------4---x---4---x---4---x---4-
B|-----5---x---5---x---5---x---5-------5---x---5---x---5---x---5-
e|-----0---x---0---x---0---x---0-------0---x---0---x---0---x---0-
 rompiste................... mi corazón


 Cmaj7/D
E|-----------------5-------------------------------5------------
A|-5----------------------3--------5----------------------5-----
D|----------x---5---------------------------x---5---------------
G|-----4----x---4-----0-------0--------4----x---4-----4------4--
B|-----5----x---5-----5-------5--------5----x---5-----5------5--
e|-----0----x---0-----0-------0--------0----x---0-----0------0--
 ahórrate el drama por favor que a mi no me trama tu actuación,


   Cmaj7
E|---------------------------------3-----------------------------
A|---3-----------------------------------------------------------
D|---------x---5---x---5---x---5-------5---x---5---x---5---x---5-
G|-----4---x---4---x---4---x---4-------4---x---4---x---4---x---4-
B|-----5---x---5---x---5---x---5-------5---x---5---x---5---x---5-
e|-----0---x---0---x---0---x---0-------0---x---0---x---0---x---0-
 no sirve...............ya no hay razón


 Cmaj7/D
E|-----------------5-------------------------------5------------
A|-5----------------------3--------5----------------------5-----
D|----------x---5---------------------------x---5---------------
G|-----4----x---4-----0-------0--------4----x---4-----4------4--
B|-----5----x---5-----5-------5--------5----x---5-----5------5--
e|-----0----x---0-----0-------0--------0----x---0-----0------0--
no vengas aquí que ya no estoy no soy el remedio a tu dolor


   Cmaj7
E|---------------------------------3-----------------------------
A|---3-----------------------------------------------------------
D|---------x---5---x---5---x---5-------5---x---5---x---5---x---5-
G|-----4---x---4---x---4---x---4-------4---x---4---x---4---x---4-
B|-----5---x---5---x---5---x---5-------5---x---5---x---5---x---5-
e|-----0---x---0---x---0---x---0-------0---x---0---x---0---x---0-
 tu tiempo.................ya se acabo


PRECORO

1ra parte

  Fmaj7                         G6
E|-----------------------------------------------------
A|-----------------------------------------------------
D|-3-----------------------------5---------------------
G|----2---x---2---x---2---x---2-----4--x--4--x--4--x--4-
B|----1---x---1---x---1---x---1-----3--x--3--x--3--x--3-
e|----0---x---0---x---0---x---0-----0--x--0--x--0--x--0-
recoges lo que siembras y en mi seembraste  dolor


   Cmaj7         Dmadd9/B        Am             G
E|----------------------------------------------3-------------
A|---3--------------2-------------0---------------------------
D|-------5---x---5-----3---x---3-----2---x---2---------x------
G|-------4---x---4-----2---x---2-----2---x---2-----0---x---0--
B|-------5---x---5-----3---x---3-----1---x---1-----3---x---3--
e|-------0---x---0-----0---x---0-----0---x---0-----3---x---3--
me tuviste y no me  viste cuando  tuya era mi voz


2da parte

  Fmaj7                         G6
E|-----------------------------------------------------
A|-----------------------------------------------------
D|-3-----------------------------5---------------------
G|----2---x---2---x---2---x---2-----4--x--4--x--4--x--4-
B|----1---x---1---x---1---x---1-----3--x--3--x--3--x--3-
e|----0---x---0---x---0---x---0-----0--x--0--x--0--x--0-
recoges lo que siembras y en mi seembraste  dolor y aunque


   Am                       G
E|--------------------------3--------------3-----3-
A|--0--------------------------------------2-----2-
D|-----2--x--2--x--2--x--2--------x-----x--0--x--0-
G|-----2--x--2--x--2--x--2-----0--x--0--x--0--x--0-
B|-----1--x--1--x--1--x--1-----3--x--3--x--3--x--3-
e|-----0--x--0--x--0--x--0-----3--x--3--x--3--x--3-
es triste despedirte no quiero más que un adiós


CORO

  Cadd9                        Gsus2
Ahora vuelves a mi cuando ya no te queda nada
 Dm                            Am               G
ahora vienes conmigo cuando ya no quiero darte amor

 Cadd9                         Gsus2
Ahora vuelves a mi cuando ya no te queda nada
 Dm                            Am                G
ahora vienes conmigo cuando ya no quiero darte amor


Cmaj7/D
E|-----------------5-------------------------------5------------
A|-5----------------------3--------5----------------------5-----
D|----------x---5---------------------------x---5---------------
G|-----4----x---4-----0-------0--------4----x---4-----4------4--
B|-----5----x---5-----5-------5--------5----x---5-----5------5--
e|-----0----x---0-----0-------0--------0----x---0-----0------0--
Hoy en  mi memoria sé que tu   solo eres historia  ya  tu luz


   Cmaj7
E|---------------------------------3-----------------------------
A|---3-----------------------------------------------------------
D|---------x---5---x---5---x---5-------5---x---5---x---5---x---5-
G|-----4---x---4---x---4---x---4-------4---x---4---x---4---x---4-
B|-----5---x---5---x---5---x---5-------5---x---5---x---5---x---5-
e|-----0---x---0---x---0---x---0-------0---x---0---x---0---x---0-
 no existe.................ya se apago


Cmaj7/D
E|-----------------5-------------------------------5------------
A|-5----------------------3--------5----------------------5-----
D|----------x---5---------------------------x---5---------------
G|-----4----x---4-----0-------0--------4----x---4-----4------4--
B|-----5----x---5-----5-------5--------5----x---5-----5------5--
e|-----0----x---0-----0-------0--------0----x---0-----0------0--
hoy ya no me siento un infeliz, la sal me curo la cicatriz


   Cmaj7
E|---------------------------------3-----------------------------
A|---3-----------------------------------------------------------
D|---------x---5---x---5---x---5-------5---x---5---x---5---x---5-
G|-----4---x---4---x---4---x---4-------4---x---4---x---4---x---4-
B|-----5---x---5---x---5---x---5-------5---x---5---x---5---x---5-
e|-----0---x---0---x---0---x---0-------0---x---0---x---0---x---0-
 no sirve................ ya tu perdón


Cmaj7/D
E|-----------------5-------------------------------5------------
A|-5----------------------3--------5----------------------5-----
D|----------x---5---------------------------x---5---------------
G|-----4----x---4-----0-------0--------4----x---4-----4------4--
B|-----5----x---5-----5-------5--------5----x---5-----5------5--
e|-----0----x---0-----0-------0--------0----x---0-----0------0--
 ahorrate el drama por favor que a mi no me trama tu actuación,


   Cmaj7
E|---------------------------------3-----------------------------
A|---3-----------------------------------------------------------
D|---------x---5---x---5---x---5-------5---x---5---x---5---x---5-
G|-----4---x---4---x---4---x---4-------4---x---4---x---4---x---4-
B|-----5---x---5---x---5---x---5-------5---x---5---x---5---x---5-
e|-----0---x---0---x---0---x---0-------0---x---0---x---0---x---0-
 no sirve...............ya no hay razón


PRECORO


CORO x2


Fmaj7   G6   Cmaj7   Dmadd9/B    Am    G   <---(1ra parte precoro)
                                                     (punteo)
PRECORO   <-------2da parte


CORO x2


Fmaj7   G6   Cmaj7*


Muy bnuena cancion
Un abrazo!

Cualquier duda: alvaro_017_@hot...


LISTA DE ACORDES

   Cmaj7/D    Cmaj7   Fmaj7   G6    Dmadd9/B   Cadd9   Gsus2 Cmaj7*
E|----x---------x-------x------x--------x---------x------3-----x--
A|----5---------3-------x------x--------2---------3------0-----3--
D|----5---------5-------3------5--------3---------2------0-----5--
G|----4---------4-------2------4--------2---------0------0-----4--
B|----5---------5-------1------3--------3---------3------3-----5--
e|----0---------0-------0------0--------0---------3------3-----3--
Suggest correction
Give kudos to tab author, rate the tab!
1 2 3 4 5
comments
print report bad tab
guest
Wanna post a correction for this tab? Suggest correction