Oops, an error
Loading. Please wait.

Muérdeme Tab

31 views 1 this week
no commentswrite comment
1 2 3 4 5
3 more votes to show rating
add to favorites
launch autoscroll
font size
0
reset
how to read this tab
guitar tuner
×
Best way to learn
"Muérdeme"
Autoscroll
slow
fast
+/-
esc
set tempo
stop
(NOTAS)
 SOL  LAsus  SIm   RE
--3-----0-----2-----2
--3-----3-----3-----3
--0-----2-----4-----2
--0-----2-----4-----0
--2-----0-----2-----0
--3-----0-----2-----0

(INTRO)
|--------------------------------------------------------------------|
|--------------------------------------------------------------------|
|-----7--7-7---7--7-7----------------7--7-7---7--7-7-----------------|
|----7--7-----7--7------------------5--5-----5--7--------------------|
|---5--5--5--5--5--5---------------5--5--5--5--5--5------------------|
|--------------------------------------------------------------------|

(VERSO)
|--------------------------------------------------------------------|
|--------------------------------------------------------------------|
|-----7--7-7---7--7-7----------------7--7-7---7--7-7-----------------|
|----7--7-----7--7------------------5--5-----5--7--------------------|
|---5--5--5--5--5--5---------------5--5--5--5--5--5------------------|
|--------------------------------------------------------------------|
   Si tu sangre es tan fría,     que permite hacer daño

|--------------------------------------------------------------------|
|--------------------------------------------------------------------|
|-----7--7-7---7--7-7----------------7--7-7---7--7-7-----------------|
|----7--7-----7--7------------------5--5-----5--7--------------------|
|---0--0--0--0--0--0---------------5--5--5--5--5--5------------------|
|--------------------------------------------------------------------|
    no lo entiendo,              me he perdido en algún paso

|--------------------------------------------------------------------|
|--------------------------------------------------------------------|
|-----7--7-7---7--7-7----------------7--7-7---7--7-7-----------------|
|----7--7-----7--7------------------5--5-----5--7--------------------|
|---5--5--5--5--5--5---------------5--5--5--5--5--5------------------|
|--------------------------------------------------------------------|
    quieres verme jodido,         como ya no te fías

|--------------------------------------------------------------------|
|--------------------------------------------------------------------|
|-----7--7-7---7--7-7----------------7--7-7---7--7-7-----------------|
|----7--7-----7--7------------------5--5-----5--7--------------------|
|---0--0--0--0--0--0---------------5--5--5--5--5--5------------------|
|--------------------------------------------------------------------|
     vienes a comprobarlo,         por ti misma
|--------------------------------------------------------------------|
|--------------------------------------------------------------------|
|-----7--7-7---7--7-7----------------7--7-7---7--7-7-----------------|
|----7--7-----7--7------------------5--5-----5--7--------------------|
|---5--5--5--5--5--5---------------5--5--5--5--5--5------------------|
|--------------------------------------------------------------------|
     las peores                  con tanta diferencia

|--------------------------------------------------------------------|
|--------------------------------------------------------------------|
|-----7--7-7---7--7-7----------------7--7-7---7--7-7-----------------|
|----7--7-----7--7------------------5--5-----5--7--------------------|
|---0--0--0--0--0--0---------------5--5--5--5--5--5------------------|
|--------------------------------------------------------------------|
   de todas las semanas          de mi única existencia

(PRE-ESTRIBILLO)
SOL                     LAsus
y tú te dedicas a hacer gestos
  SIm                 SOL
y yo juraría que lo evitas
SOL                     LAsus
y tú te dedicas a hacer gestos
              SIm
matarías por defecto,
                 SOL
casi un entretenimiento

(ESTRIBILLO)
RE        RE        SOL
muérdeme, muérdeme, muérdeme
            LAsus                      SOL
hasta asesinarme, quédate con lo que quede de ella
RE        RE        SOL
muérdeme, muérdeme, muérdeme,
            LAsus                      SOL
hasta desangrarme, quédate con lo que reste

(VERSO)
|--------------------------------------------------------------------|
|--------------------------------------------------------------------|
|-----7--7-7---7--7-7----------------7--7-7---7--7-7-----------------|
|----7--7-----7--7------------------5--5-----5--7--------------------|
|---5--5--5--5--5--5---------------5--5--5--5--5--5------------------|
|--------------------------------------------------------------------|
    y luego lárgate,               y luego lárgate

|--------------------------------------------------------------------|
|--------------------------------------------------------------------|
|-----7--7-7---7--7-7----------------7--7-7---7--7-7-----------------|
|----7--7-----7--7------------------5--5-----5--7--------------------|
|---0--0--0--0--0--0---------------5--5--5--5--5--5------------------|
|--------------------------------------------------------------------|
             y luego     lár   ga   te

SOL
Ohhh ohhh ohhhh ohhh
LAsus
Ohhh ohhh ohhhh ohhh
SIm                  SOL
Ohhh ohhh ohhhh ohhh ohhh


(VERSO)
|--------------------------------------------------------------------|
|--------------------------------------------------------------------|
|-----7--7-7---7--7-7----------------7--7-7---7--7-7-----------------|
|----7--7-----7--7------------------5--5-----5--7--------------------|
|---5--5--5--5--5--5---------------5--5--5--5--5--5------------------|
|--------------------------------------------------------------------|
    y si hubiera sabido              adivinarte

|--------------------------------------------------------------------|
|--------------------------------------------------------------------|
|-----7--7-7---7--7-7----------------7--7-7---7--7-7-----------------|
|----7--7-----7--7------------------5--5-----5--7--------------------|
|---0--0--0--0--0--0---------------5--5--5--5--5--5------------------|
|--------------------------------------------------------------------|
    ten seguro      que volvería        a darte

|--------------------------------------------------------------------|
|--------------------------------------------------------------------|
|-----7--7-7---7--7-7----------------7--7-7---7--7-7-----------------|
|----7--7-----7--7------------------5--5-----5--7--------------------|
|---5--5--5--5--5--5---------------5--5--5--5--5--5------------------|
|--------------------------------------------------------------------|
   mi demencia, cordura,           tristeza, fortuna

|--------------------------------------------------------------------|
|--------------------------------------------------------------------|
|-----7--7-7---7--7-7----------------7--7-7---7--7-7-----------------|
|----7--7-----7--7------------------5--5-----5--7--------------------|
|---0--0--0--0--0--0---------------5--5--5--5--5--5------------------|
|--------------------------------------------------------------------|
   inocencia, ternura,              maldita la luna

(PRE-ESTRIBILLO)
SOL                     LAsus
y tú te dedicas a hacer gestos
  SIm                 SOL
y yo juraría que lo evitas
SOL                     LAsus
y tú te dedicas a hacer gestos
              SIm
matarías por defecto,
                 SOL
casi un entretenimiento

(ESTRIBILLO)
RE        RE        SOL
muérdeme, muérdeme, muérdeme
            LAsus                      SOL
hasta asesinarme, quédate con lo que quede de ella
RE        RE        SOL
muérdeme, muérdeme, muérdeme,
            LAsus                      SOL
hasta desangrarme, quédate con lo que reste

SOL
Ohhh ohhh ohhhh ohhh
LAsus
Ohhh ohhh ohhhh ohhh
SIm                  SOL
Ohhh ohhh ohhhh ohhh ohhh

SOL
Ohhh ohhh ohhhh ohhh
LAsus
Ohhh ohhh ohhhh ohhh
SIm                  SOL
Ohhh ohhh ohhhh ohhh ohhh

(FINAL) SOL
Suggest correction
Give kudos to tab author, rate the tab!
1 2 3 4 5
comments
print report bad tab
guest
You may want to rate the tab now too:
select rating
Wanna post a correction for this tab? Suggest correction