Oops, an error
Loading. Please wait.

Jódete Tab

70 views 1 this week
no commentswrite comment
1 2 3 4 5
3 more votes to show rating
add to favorites
launch autoscroll
font size
0
reset
how to read this tab
guitar tuner
×
Best way to learn
"Jódete"
Autoscroll
slow
fast
+/-
esc
set tempo
stop
INTRODUCION

1:------------------------------------------2------
2:---0---0--0------0-------0---0----------0---0----
3:--0---0--0------0-------0---0----------2-----2---
4:-2---1--0-----------------------------1----------
5:-------2-------4---0---3--2----------2-----------
6:--------------------------------3-2--------------
X2

Riff1
1:---------------------------------------
2:---------------------------------------
3:------14^--12-14^-14-12 -14------------
4:---------------------------------------
Riff2
1:---------------------------------------
2:---------------------------------------
3:------14^--12-14^-14-12 ---------------
4:--------------------------14-----------
Riff3
1:---------------------------------------
2:--15-----------------------------------
3:------14^--12--------------------------
4:---------------14----------------------
Riff4
1:----------------12----------------
2:--15------------------------------
3:------14^--12---------------------
4:----------------------------------

Em                G
Jodete.. por pelotudo
           D                 A
Se cae el mundo.. y vos ni ahi
Em                   G
Jodete..por hijo de puta
              D                A
Pidieron tu ayuda.. y vos ni ahi


     Em  riff1          G riff2
Sos dueño de nada... del amor que emana
    D riff3      A riff4
de tu mente... tu mente
        Em  riff1       G riff2
Sos parte del aire... pese a mi desaire
        D riff3        A riff4
Y tu indiferencia... tu poca inteligencia


-Introduccion x2

Em               G
Jodete... por careta
             D                   A
Lo que mas detestas.. es lo que te hace bien
Em                    G
Jodete... por ser una mierda
           D                    A
Cortas la yerba...  preferis cemento

              Em                    G
Sos dueño de nada... del amor que emana
        D             A
de tu mente... tu mente
              Em                   G
Sos parte del aire... pese a mi desaire
             D                      A
Y tu indiferencia... tu poca inteligencia


Cuando tenga tiempo pongo el solo?
Suggest correction
Give kudos to tab author, rate the tab!
1 2 3 4 5
comments
print report bad tab
guest
You may want to rate the tab now too:
select rating
Wanna post a correction for this tab? Suggest correction