Oops, an error
Loading. Please wait.

Alguien Como Tú Tab

44 views 1 this week
no commentswrite comment
1 2 3 4 5
3 more votes to show rating
add to favorites
launch autoscroll
font size
0
reset
how to read this tab
guitar tuner
×
Best way to learn
"Alguien Como Tú"
Autoscroll
slow
fast
+/-
esc
set tempo
stop
G#m: 466444
E:   476454
B:   224442 (en intro suena mejor 779987)
F#m: 244322 (en intro suena mejor x98676)
C#m: 446654

====================================================

[intro]:
    G#m            E             B               F#m
E-||--6/7--7-7-6--|-------------|---------------|-----------------|
B-||--------------|7-7-7-7------|------------7--|7/9--7-----------|
G-||------------8-|---------9---|8-----8-8-9----|--------6/8--6---|
D-||--------------|-------------|---------------|----------------6|
A-||--------------|-------------|---------------|-----------------|
E-||--------------|-------------|---------------|-----------------|

    G#m            E             B               F#m
E-||--6/7--7-7-6--|-------------|---------------|------------------|
B-||--------------|7-7-7-7------|------------7--|7/9--7-7/9--7--7/9|
G-||------------8-|---------9---|8-----8-8-9----|------------------|
D-||--------------|-------------|---------------|------------------|
A-||--------------|-------------|---------------|------------------|
E-||--------------|-------------|---------------|------------------|


G#m            E                     B
He seguido tu sombra en cualquier lugar
               F#m              G#m
Me he perdido dentro de mi soledad
         E            B
Y me perdí sin preguntar
                 F#m             G#m
Dónde estaba el bien y dónde el mal
E              B    F#m
   Y dónde el mal

G#m             E             B
He gastado mil días en descifrar
              F#m                    G#m
Todas las mentiras que ahora son verdad
         E           B
Robé tu risa sin maldad
             F#m
Toda tu alegría y libertad


E           B         F#m              C#m
   Y puedo ver anochecer detrás de tus ojos
E          B           F#m            C#m
   Y recorrer toda tu piel sin despertar
B            F#m
   Nunca sabré tu nombre
G#m          E
   Tampoco cuándo y dónde
B              F#m           C#m
   Encontrar a alguien como tú

              G#m   E            B   F#m
Alguien como tú,      igual que tú
              G#m   E            B   F#m
Alguien como tú,      igual que tú


G#m               E              B
He encendido las luces de la ciudad
           F#m                G#m
Escondí mi alma en un triste bar
           E          B
Y ahora intento respirar
               F#m
No me llena el aire si no estás


E            B        F#m                 C#m
   Y quiero ver amanecer al mirarte a los ojos
E         B             F#m         C#m
   Y renacer del fuego tibio de tu piel
B            F#m
   Nunca sabré tu nombre
G#m          E
   Tampoco cuándo y dónde
B              F#m           C#m
   Encontrar a alguien como tú

              G#m   E            B   F#m
Alguien como tú,      igual que tú
              G#m   E            B   F#m
Alguien como tú,      igual que tú
              G#m   E            B   F#m
Como tú...   [repetir intro]


[sobre riff]
G#m            E               B
He pintado tu mundo en mi corazón
              F#m               G#m
Todas las pinturas y todo el color

[sobre riff]
          E             B
Pero me vuelvo a equivocar
               F#m
No recuerdo a nadie a quien pintar


E            B        F#m                 C#m
   Y quiero ver amanecer al mirarte a los ojos
E          B           F#m            C#m
   Y recorrer toda tu piel sin despertar
B            F#m
   Nunca sabré tu nombre
G#m          E
   Tampoco cuándo y dónde
B              F#m           C#m
   Encontrar a alguien como tú

              G#m   E            B   F#m
Alguien como tú,      igual que tú
              G#m   E            B   F#m
Alguien como tú,      igual que tú
              G#m   E            B   F#m
Como tú...   , como tú...

              G#m   E            B   F#m
[outtro]


=======================================================================


[riff]:
    G#m           E             B               F#m
E-||--------------|--------------|--------------|--------------|
B-||--7-----------|--------------|--7-----------|--------------|
G-||-------9---8--|--------------|-------9---8--|6-------------|
D-||--------------|9-------------|--------------|--------------|
A-||--------------|--------------|--------------|--------------|
E-||--------------|--------------|--------------|--------------|


Si te cuesta tocar esta versión, prueba a cambiar las notas siguientes

G#m: por A:  002210
E:   por F:  133211
B:   por C:  032010
F#m: por G:  320003
C#m: por Dm: 000231

Tocarás la canción unos tonos más bajo, pero los acordes son más sencillos.


###--------------------------------###
### Tablatura de:  Enrique Moraño  ###
###  Sevilla [España]  para ATAME  ###
### emorano@   MAY-2005 ###
###--------------------------------###
Suggest correction
Give kudos to tab author, rate the tab!
1 2 3 4 5
comments
print report bad tab
guest
You may want to rate the tab now too:
select rating
Wanna post a correction for this tab? Suggest correction