Oops, an error
Loading. Please wait.

Ya Me Olvidé De Tí Tab

55 views 1 this week
no commentswrite comment
1 2 3 4 5
3 more votes to show rating
add to favorites
launch autoscroll
font size
0
reset
how to read this tab
guitar tuner
×
Best way to learn
"Ya Me Olvidé De Tí"
Autoscroll
slow
fast
+/-
esc
set tempo
stop
E (Mi): 022100
B (Si): 224442
E#(Mi#):022130
A (La): 002220


[intro]             B                      E       
E-||---4-4-4--5--4--7---------2-2-2--4/5-5-5---4---
B-||-----------------------------------------------
G-||---4-4-4--6--4--8---------2-2-2--4/6-6-6---4---
D-||-----------------------------------------------
A-||-----------------------------------------------
E-||-----------------------------------------------

                    B             A     B     E
E-||---4-4-4--5--4--7-9-7---------5---5-7---7-12---
B-||----------------------7------------------------
G-||---4-4-4--6--4--8---8-8-------6---6-8---8-13---
D-||--------------------------------7-----9--------
A-||-----------------------------------------------
E-||-----------------------------------------------


E                   B
Ya me olvidé de tí
            E
Ya no te quiero

Hoy sé que sin tu amor
           B
Ya no me muero

Ya puedo respirar

Tranquilamente

Aunque te vea yo
           E  
Una y mil veces
                      B
Ayer que te encontré
             E
Por Dios lo juro
                    E#
Que a tu lado pasé
       A
Indiferente

Yo que tanto temí
B            E
Por este encuentro
                 B
Hoy te juro por Dios
           E
Que nada siento


                   B
Ayer que te encontré
            E
Vencida y triste
              B
Sin una sombra ya
            E
De lo que fuiste
                  A   B
Que me puse a pensar
          E
Desconcertado
                  B
'¡Y de esto estuve yo
      E
Enamorado!'


[solo]               B                       E       
E-||----7--9/11--9-9-9-9/11--------7/9-7--5--5--2/4---
B-||--------------------------------------------------
G-||-------------9-9-9-9/11--------8/9-8--6--6--2/4---
D-||--------------------------------------------------
A-||--------------------------------------------------
E-||--------------------------------------------------

                    B           A   B        E   
E-||--0----4--4\2-0-2/4--2-------5---4---2--------
B-||---0--------------------------5---5---4-------
G-||----1--4--4\2-1-2/4--2---------4---4---4------
D-||----------------------------------------------
A-||----------------------------------------------
E-||----------------------------------------------


                      B
Ayer que te encontré
            E
Quise alcanzarte
                     E#
Correr detrás de tí
         A
Para gritarte

Ya me olvidé de tí
B           E
Ya no te quiero
                  B
Hoy sé que sin tu amor
           E
Ya no me muero


                   B
Ayer que te encontré
            E
Vencida y triste
                B 
Sin una sombra ya
            E
De lo que fuiste
                  A   B
Que me puse a pensar
          E 
Desconcertado
                  B
'¡Y de esto estuve yo
      E
Enamorado!'


[repetir intro]


B  E


### Tablatura de: Enrique Moraño ###
### Sevilla [España] para ATAME  ###
###     emorano@      ###
Suggest correction
Give kudos to tab author, rate the tab!
1 2 3 4 5
comments
print report bad tab
guest
You may want to rate the tab now too:
select rating
Wanna post a correction for this tab? Suggest correction