Oops, an error
Loading. Please wait.

La Locura Automática Bass Tab

38 views 1 this week
no commentswrite comment
1 2 3 4 5
3 more votes to show rating
add to favorites
launch autoscroll
font size
0
reset
guitar tuner
×
Best way to learn
"La Locura Automática"
Autoscroll
slow
fast
+/-
esc
set tempo
stop
les mando esta cancion
asi baladita esta bonita
no me gusta el remix
pero haber ps
talvez lo mande
o talvez no?
Intro
E|----5---|---------|-----3---|-----0---|---5---|---------|---3---|----|
A|--5--55-|--5--5---|-5-3--33-|-2-0--00-|-5--55-|--5--5---|-3--33-|-3--|
D|--------|-5-5--55-|--5------|---------|-------|-5-5--55-|-------|----|
G|--------|---------|---------|---------|-------|---------|-------|----|

No castigues
E|--------|---------|---3---|---0---|---|----|---3---|----|
A|----3---|-3---5---|-3--33-|-0--00-|---|-5--|-3--33-|-3--|
D|--3--33-|--35--55-|-------|-------|-3-|--5-|-------|----|
G|--------|---------|-------|-------|---|----|-------|----|

no recuerdas
E|--------|---------|---3---|---0---|---|----|---3---|-3--3---|
A|----3---|-3---5---|-3--33-|-0--00-|---|-5--|-3--33-|--3--3--|
D|--3--33-|--35--55-|-------|-------|-3-|--5-|-------|--------|
G|--------|---------|-------|-------|---|----|-------|--------|

si yo no te vuelvo
E|--------|---------|---3---|-----0---|---|----|---3---|-3--------|
A|----3---|-3---5---|-3--33-|------00-|---|-5--|-3--33-|--3-5-----|
D|--3--33-|--35--55-|-------|---------|-3-|--5-|-------|-----2-5--|
G|--------|---------|-------|-542-----|---|----|-------|----------|

si yo no
E|--------|---------|---3---|-----0---|---|----|---3---|-3------|
A|----3---|-3---5---|-3--33-|-2-0--00-|---|-5--|-3--33-|--3-33--|
D|--3--33-|--35--55-|-------|---------|-3-|--5-|-------|--------|
G|--------|---------|-------|---------|---|----|-------|--------|

hoy recuerdo el dia
E|--------|---------|---3---|-----0---|---|----|---3---|-----8/0--|
A|----3---|-3---5---|-3--33-|-2-0--00-|---|-5--|-3--33-|-3-3------|
D|--3--33-|--35--55-|-------|---------|-3-|--5-|-------|----------|
G|--------|---------|-------|---------|---|----|-------|----------|

si volvieras
E|--------|---------|---3---|-----0---|----|-----|---3---|----------|
A|----3---|-3---5---|-3--33-|-2-0--00-|-3--|-5---|-3--33-|-3-3-3-3--|
D|--3--33-|--35--55-|-------|---------|--3-|--55-|-------|----------|
G|--------|---------|-------|---------|----|-----|-------|----------|

si yo no te vuelvo
E|--------|---------|---3---|-----0---|---|----|---3---|-3--------|
A|----3---|-3---5---|-3--33-|------00-|---|-5--|-3--33-|--3-5-----|
D|--3--33-|--35--55-|-------|---------|-3-|--5-|-------|-----2-5--|
G|--------|---------|-------|-542-----|---|----|-------|----------|

si yo no
E|--------|---------|---3---|-----0---|---|----|---3---|-3-------|
A|----3---|-3---5---|-3--33-|-2-0--00-|---|-5--|-3--33-|--3-3-3--|
D|--3--33-|--35--55-|-------|---------|-3-|--5-|-------|---------|
G|--------|---------|-------|---------|---|----|-------|-----5---|

E|--------|---------|---3---|---0---|---5---|---------|---3---|-3--------|
A|----3---|-3---5---|-3--33-|-0--00-|-5--55-|--5--5---|-3--33-|--3-5-----|
D|--3--33-|--35--55-|-------|-------|-------|-5-5--55-|-------|-----2-5--|
G|--------|---------|-------|-------|-------|---------|-------|----------|

si yo no te vuelvo
E|--------|---------|---3---|-----0---|---|----|---3---|-3--------|
A|----3---|-3---5---|-3--33-|-2-0--00-|---|-5--|-3--33-|--3-5-----|
D|--3--33-|--35--55-|-------|---------|-3-|--5-|-------|-----2-5--|
G|--------|---------|-------|---------|---|----|-------|----------|

si yo no
E|--------|---------|---3---|-----0---|---|----|-----5-3--|
A|----3---|-3---5---|-3--33-|-2-0--00-|---|-5--|-3-2------|
D|--3--33-|--35--55-|-------|---------|-3-|--5-|----------|
G|--------|---------|-------|---------|---|----|----------|

es para mi
E|-----|----|-----5-3-|---|---|----|
A|-----|----|-3-2-----|---|---|-3--|
D|--33-|-55-|---------|-3-|-5-|----|
G|-----|----|---------|---|---|----|

atte. miauricio gatolar
Suggest correction
Give kudos to tab author, rate the tab!
1 2 3 4 5
comments
print report bad tab
guest
You may want to rate the tab now too:
select rating
Wanna post a correction for this tab? Suggest correction