Oops, an error
Loading. Please wait.

A Escondidas Tab

22 views 3 this week
no commentswrite comment
1 2 3 4 5
3 more votes to show rating
add to favorites
launch autoscroll
font size
0
reset
how to read this tab
guitar tuner
Autoscroll
slow
fast
+/-
esc
set tempo
stop
Help us to improve Ultimate-Guitar.com Take our survey!
×
Intro: B G D A x2

La canción esta bien tabulada, únicamente añado
el punteo que tocan al principio de la cancion
un par de veces, y otra al final.
Leyenda:
s:slide
h:hammer-on
p:pull-off

e--------------------------------------------------------------------
b------------------------8--10-8-7-----------------------------------
g---------7s9-9b-7-9-7-7---------------7---7h9p7-9-7-9-9b-7---7------
d-9-9--------------------------------9---9------------------9--9-7-9-
a-----10-------------------------------------------------------------
e--------------------------------------------------------------------

e------------------------------------------------------------
b-----------10h12-------------------------------------------------
g--7h9-9h11---------------------------------------------------------
d------------------------------------------------------------
a------------------------------------------------------------
e------------------------------------------------------------


B      G   D    A
Vives sin disfrutar
  B              G          D    A
Tu vida es el reflejo de la vanidad
B    G       D     A
Sufres para aparentar
G                    A
Todo lo que no has tenido

B      G    D    A
Sientes la soledad
B          G            D          A
Un cuerpo perfecto y un cerebro vacio
B      G    D    A
Tienes que vomitar
G                    A
A escondidas toda la verdad


---Toca el bajo---
Vives sin disfrutar
Tu vida es el reflejo de la vanidad
Sufres para aparentar
---Empieza la guitarra---
G                    A
Todo lo que no has tenido


B      G    D    A
Sientes la soledad
B          G            D          A
Un cuerpo perfecto y un cerebro vacio
B      G    D    A
Tienes que vomitar
G                    A
A escondidas toda la verdad
G                         A
A escondidas todas tus miserias


La parte que toca con la bateria es así:

B D (bateria) G D A

Zervan.
Suggest correction
Give kudos to tab author, rate the tab!
1 2 3 4 5
comments
print report bad tab
guest
You may want to rate the tab now too:
select rating
Wanna post a correction for this tab? Suggest correction