Oops, an error
Loading. Please wait.
64 views 1 this week
no commentswrite comment
1 2 3 4 5
3 more votes to show rating
add to favorites
launch autoscroll
font size
0
reset
how to read this tab
guitar tuner
×
Best way to learn
"Atraco"
Autoscroll
slow
fast
+/-
esc
set tempo
stop
A# G D G A# G F G  |
A# G D G A# G F    | X2

A# G D G A# G F G
cinco colegas metidos dentro de un banco
A# G D G A# G F
fuera espera uno de ellos con el coche arrancado

A#
las manos en la cabeza
C
esto es un jodido atraco
A#
mete el dinero en el saco
C
despacito y con cuidado

A# G D G A# G F G
A# G D G A# G F

A# (palm muted)
El gordo sudoroso
ha apretao la alarma
A# G D G A# G F
ahora duerme en el suelo tras golpes y patadas

A#
fuera espera la madera
C
salgan con las manos en alto
A#
no teneis escapatoria
C
estais rodeados

A# G D G A# G F G
A# G D G A# G F

Solo:

--------------------------------------------------
--------------------------------------------------
--------------------------------------------------
9-9-9--7-7--11-11-11--9-9--9-9-9--7-7-------------
---------------------------------------8-8--10-10-
--------------------------------------------------

-------------------------------------------------------------
-------------------------------------------------------------
-------------------------------------------------------------
9-9-9--7-7--11-11-11--9-9--9-9-9--7-7--8/"12ful"-12-10-12-10-
-------------------------------------------------------------
-------------------------------------------------------------

----------------------------------------------------------
----------------------------------------------------------
----------------------------------------------------------
--"15ful"-15-13-15-13-------------------------13-p15/17---
----------------------15-14-15-14-15-14-15-14----------15-
----------------------------------------------------------

G                   A#
atras todo el mundo atras
                 C
de aki no sale ni dios
                D
no pienso volver
G                       A#
a prision,maldita prision
         C                    D
tenemos rehenes y vamos armaos

A# G D G A# G F G
impactos
A# G D G A# G F
de bala

A# G D G A# G F G
impactos
A# G D G A# G F
de bala!!!!!!!!!


"Gora Kukumbers"
Suggest correction
Give kudos to tab author, rate the tab!
1 2 3 4 5
comments
print report bad tab
guest
You may want to rate the tab now too:
select rating
Wanna post a correction for this tab? Suggest correction