Oops, an error
Loading. Please wait.

Balance De Daños Bass

32 views 1 this week
no commentswrite comment
1 2 3 4 5
3 more votes to show rating
add to favorites
launch autoscroll
font size
0
reset
guitar tuner
×
Best way to learn
"Balance De Daños"
Autoscroll
slow
fast
+/-
esc
set tempo
stop
Esta la partitura del bajo para la cancion. deben 
escucharla para saber donde van correctamente los tiempos
100% correcta. Ahi va:

Intro: esta parte es muy rapida.
G/---------------------------------------------------------/
D/---------------------------------------------------------/
A/-1/3-333--1/3-333--1/31/31/3333--1/3-333--1/3-33--1/33333/
E/---------------------------------------------------------/

Verso:(un nuevo milenio...)
G/----------------------/
D/----------------------/
A/-111-1-333-3---------- / (x2)
E/-------------111-1-111/ 

puente:(esto se hace antes de entrar al otro verso)
E/-1/5--5/1-/

(y yo ke esperaba...)
G/-----------------------------------/
D/-----------------------------------/
A/-11111111-33333333-55555555--------/
E/---------------------------11111111/

(montar en naves...)
G/------------------------------------/
D/------------------------------------/
A/-11111111-33333333----------55555555/
E/-------------------55555555---------/

(lo cierto es ke hemos...)
G/------------------/
D/------------------/
A/-111111-333333----/
E/---------------11-/

(aki solo el bajo akompañado de la guitarra)
G/-----------------------------------------/
D/-----------------------------------------/
A/-------------111-333-------------555-333-/ (x2)
E/-1-1-11111-11---------1-1-111111---------/

Luego se repite el verso y la parte del solo, y la cancion 
termina asi:

ultimo verso:(los polos se descongelan)
G/------------------------------------------------------/
D/------------------------------------------------------/
A/-11111111-33333333---------55555555--111111-3333333---/
E/-------------------55555555-------------------------1-/

Aqui viene un silencio general y continua la cancion mas o
menos a los 4 o 5 segundos (ustedes deciden y sigue de la 
misma forma ke el ultimo verso y, se le agrega inmediatamente 
este final:

(*:dejar sonar al nota)
G/-----------------/
D/-----------------/
A/--1-1------------/
E/-1-1-1**----1/12-/

espero ke les sirva esta tablatura e interpretar esta buenisima
cancion. dudas y preguntas escriban a lucho_chile15@
saludos desde Chile.
Suggest correction
Give kudos to tab author, rate the tab!
1 2 3 4 5
comments
print report bad tab
guest
You may want to rate the tab now too:
select rating
Wanna post a correction for this tab? Suggest correction