Oops, an error
Loading. Please wait.

Cualquier Error Chords

46 views 1 this week
no commentswrite comment
1 2 3 4 5
3 more votes to show rating
add to favorites
launch autoscroll
font size
0
reset
transpose
0
reset
display chords
guitar tuner
×
Best way to learn
"Cualquier Error"
Autoscroll
slow
fast
+/-
esc
set tempo
stop
Segismundo Toxicomano - Cualkier Error

En primer lugar,agradecer a Javi la colaboración en
Este tab, él me ayudó a sacarme una gran parte y
Me explico lo que eran las octavas :P
Gracias también por estar siempre ahí,y lo siento
por no ayudarte con lo de Los de Marras


   |------|      |------|
   |------|      |------|
F8 |--10--|   G8 |--12--|
   |--10--|      |--12--|
   |--8---|      |--10--|
   |------|      |------|


Riff1
|---------------------------------|
|---------------------------------|
|-0-3-2/3-3-2-3-0-3-2-3-5-7-5-----|
|---------------------------------|
|---------------------------------|
|---------------------------------|


Intro: G A# F A# A A# G A# F D# F8 (el ritmo se hace con PM)


G           D#
Cualkier error
F           A#    A A#
Puede condenar tu vida
G            D#
A rodar por aceras
           F (pm)
Distancias vacías

D# F8 G
UN ERROR

G        D#
Ser portador
F           A#   A A#
De tabúes infectados
G            D#
Se vuelve agonía
          F (pm)
Animal perseguido


D# F8


G D#      F A# A
     EH!     EH!

   G D# A# A A#

G D#      F A# A
     EH!     EH!

      G D# F8

---RIFF 1---
G      D#
Un corazón
F            A#       A A#
Se seca cuando no hay amigos
G           D#
Dibujas sonrisas
           F (pm)
En caras vacías

G           D#
Cualkier error
F           A#    A A#
Puede condenar tu vida
G            D#
A rodar por aceras
           F (pm)
Se vuelve agonia
---FIN RIFF1---

D# F8 G8

G        D#
Me roba la vida
F         A# A A#
Un poco cada dia
G         D#             F     D# F8
Me esta comiendo las entrañas


Un error!

|------------------------------------------|
|------------------------------------------|
|----12--10--------12-10----------12-10----|
|-----------12-----------12-------------12-|
|-10------------10-----------10------------|
|------------------------------------------|

|---------------------------------------------------|
|---------------------------------------------------|
|--------------------12-10--------------------------|
|--------------------------12------------10-12-10-12|
|-13-13-13-12-13-10------------13-12-13-------------|
|---------------------------------------------------|


Zervan.
Suggest correction
Give kudos to tab author, rate the tab!
1 2 3 4 5
comments
print report bad tab
guest
You may want to rate the tab now too:
select rating
Wanna post a correction for this tab? Suggest correction