Oops, an error
Loading. Please wait.

Las Drogas Tab

116 views 1 this week
no commentswrite comment
1 2 3 4 5
3 more votes to show rating
add to favorites
launch autoscroll
font size
0
reset
how to read this tab
guitar tuner
×
Best way to learn
"Las Drogas"
Autoscroll
slow
fast
+/-
esc
set tempo
stop
LAS DROGAS, MI FIN
NO PUEDO SALIR

D                   A
PORKE HOY HE VUELTO A CAER |
             B         |
SIN PODERLO ENTENDER       | 2 veces
             G         |
HOY HE VUELTO A CAER       |


Mientras una guitarra hace esto, la otra mete debajo el punteao de abajo.
D               A
SIN COMER Y SIN DORMIR
            B
AKI VIENDOLAS VENIR
            G
OBSERVANDO TELARAÑAS

D            A
UNA VIEJA HABITACION
               B
ME ADOPTADO POR COLCHON
                   G
LA LOCURA ME HA INVADIDO Y NO KIERE SALIR

|-------------------------------------------------------------------------------------------------------|
|--------------------7---7---7---10---10---10---12----12----12------------------------------------------|
|-12-11-12--12-11-9----7---7---7----9----9----9----11----11----11--12-12-12-12-11-9-7--9-11-9-7-6-4-----|
|---------------------------------------------------------------------------------------------------7-5-|
|-------------------------------------------------------------------------------------------------------|
|-------------------------------------------------------------------------------------------------------|


D                   A
PORKE HOY HE VUELTO A CAER |
             B         |
SIN PODERLO ENTENDER       | 2 veces
             G         |
HOY HE VUELTO A CAER       |


Aki igual ke antes, una guitarra esto y la otra el punteao de antes.
D               A
DENTRO DE MI HABITACION
              B
TENGO TODO EL MOGOLLON
              G
SOBRA TODO LO DEMAS

D                 A
TAKIKARDIAS, ANSIEDAD
                 B
SUDOR FRIO, MALESTAR
                  G
OTRA VEZ LA PESADILLA


D
LAS DROGAS, MI FIN
              B
NO KIERO SALIR

                         D    A
BUSCANDO UN GOLPE DE SUERTE UO O
                  E6
CON LA LOKURA ME ENCONTRE
B      B      B      B
VICIO, VICIO, VIVIO
              D         G            A
HAY MUCHO VICIO EN CADA PORO DE MI PIEL

G                 A
TIRADO EN CALLEJONES VOMITANDO AUTO DESTRUCCION


Mientras una guitarra hace esto, la otra mete debajo el punteao de abajo.
D                   A |
PORKE HOY HE VUELTO A CAER |
             B         |
SIN PODERLO ENTENDER       | 4 veces
             G         |
HOY HE VUELTO A CAER       |

|----------------------------------------------|
|----------------------------------------------|
|-7--7-6-7-9--9-7-9-11--11-9-11-12--12-11-9-7--|
|----------------------------------------------| 2 veces
|----------------------------------------------|
|----------------------------------------------|

|--------------------------------------------------------|
|--------------------------------------------------------|
|-7-7-7-7-6-7-9-9-9-9-7-9-11-11-11-11-9-11-12--12-11-9-7-|
|--------------------------------------------------------|  2 veces
|--------------------------------------------------------|
|--------------------------------------------------------|
Suggest correction
Give kudos to tab author, rate the tab!
1 2 3 4 5
comments
print report bad tab
guest
You may want to rate the tab now too:
select rating
Wanna post a correction for this tab? Suggest correction