Oops, an error
Loading. Please wait.
28 views 1 this week
no commentswrite comment
1 2 3 4 5
3 more votes to show rating
add to favorites
launch autoscroll
font size
0
reset
transpose
0
reset
simplify chords
display chords
guitar tuner
×
Best way to learn
"Nadie"
Autoscroll
slow
fast
+/-
esc
set tempo
stop
INTRO 2 VECES

   A E6 F#        A E6 F#        A E6 F#       B

E ----------------------------------------------------------------------------------------
B -10-------------10-------------10------------10-12-12-12--10----------------------------
G ----9--11-9-11-----9--11-9-11-----9--11-9-11-----------------9--11-9-11-----------------
D ----------------------------------------------------------------------------------------
A ----------------------------------------------------------------------------------------
E ----------------------------------------------------------------------------------------


F#             A F#               A F#
ALGUIEN OBSERVA    DESDE UN RINCON
F#            A F#            D C# B
MIRADA OBSCENA    DEPRAVACION


B                     D B                      D  
ES DENOCHE Y HACE FRIO  SOLA POR LA GRAN CIUDAD


F#            A F#           A F#
OYES SUS PASOS    PERSECUCION
F#        A F# 
ADRENALINA    NO POR FAVOOR

B
SIENTES SU ALIENTO EN TU CUELLO
D
Y LLORANDO IMPOTENTE DESGARRA TU CUERPO

F#            A
NADIE OYÓ SUS GRITOS
D             B
NADIE OYÓ SUS GRITOS
F#            A
NADIE OYÓ SUS GRITOS
D             B
XK NADIE OYÓ SUS GRITOS


   A E6 F#        A E6 F#        A E6 F#       B

E ----------------------------------------------------------------------------------------
B -10-------------10-------------10------------10-12-12-12--10----------------------------
G ----9--11-9-11-----9--11-9-11-----9--11-9-11-----------------9--11-9-11-----------------
D ----------------------------------------------------------------------------------------
A ----------------------------------------------------------------------------------------
E ----------------------------------------------------------------
Suggest correction
Give kudos to tab author, rate the tab!
1 2 3 4 5
comments
print report bad tab
guest
You may want to rate the tab now too:
select rating
Wanna post a correction for this tab? Suggest correction