Oops, an error
Loading. Please wait.

Nos Joden Tab

22 views 1 this week
no commentswrite comment
1 2 3 4 5
3 more votes to show rating
add to favorites
launch autoscroll
font size
0
reset
how to read this tab
guitar tuner
Autoscroll
slow
fast
+/-
esc
set tempo
stop
Help us to improve Ultimate-Guitar.com Take our survey!
×
Saludos! Bueno, he transcribido esta tablatura con el maximo
detalle posible,
también he metido un arreglillo que hace el bajo,
el resto del tiempo el bajo toca
la tónica del acorde (o eso creo).
Recomiendo tocarla mientras se escucha,
para poder darle bien el ritmo, sobretodo
los punteos.
A darle a las cuerdas!!

INTRO

--------------------------
--------------------------
-12--11--9--7--5--9--7----
-12--11--9--7--5--9--7----
-10--9---7--5--3--7--5----
--------------------------

PUNTEO GUITARRA (x2)
-------------------------------------------
-------------------------------------------  Aqui va el
-------------------0-----------0-----------  arreglo del
-----0------2--0-2---2-0---0-----2-0---0---  bajo.
-0-2----0-2------------------0-------4---2-
-------------------------------------------


ARREGLO DEL BAJO
--------------
-5-4----5-4---
-----5------5-
--------------

Parte en Palm Mute (el bajo y la guitarra solista acordes
 una octava mas agudo)
G
Nos joden, nos joden
C              D
Nos controlan y nos mienten
G
Nos joden, nos joden
C              D
Programando nuestra mente


G                                C
Otra vez más militares en son de paz
    D
Blindan su imperialismo
G                          C
Otra vez más inocentes pagarán
  D
Victimas del capitalismo
B           C               G C G
Nos inyectan su violencia
B           C         D
Nos impiden razonar


(Aqui va un punteo       Punteo del estribillo
parecido a esto)
--------------|-7------7-------8--10----------
--------8-7-8-|--8---8---8---8-------10---10--
--------------|----7-------7------------7-----
-4-5-7--------|-------------------------------
--------------|-------------------------------
--------------|-------------------------------

G
Dime si es verdad
                         C
Que alguien ha logrado escapar
                   D
de esta tela de araña
G
Dime cuanto cuesta
                 C
Saber la puta verdad
                   D
Y quien le pone precio


B           C               G C G
Nos inyectan su violencia
B           C               G C G
Nos impiden razonar
B           C
Siembran su autoridad
G                      D
Edifica sobre nuestras tumbas
B        C            D
Geriátricos con cámaras de gas

(Mientras dice "Con camaras de gas" va esto,
que enlaza con el estribillo)

-10----10----10----10---10----10----10-----10----|
----10----10----10---10----10----10----10-----10-|
-------------------------------------------------|
-------------------------------------------------|
-------------------------------------------------|
-------------------------------------------------|


 -7------7-------8--10----------
 --8---8---8---8-------10---10--
 ----7-------7------------7-----
 -------------------------------
 -------------------------------
 -------------------------------

(Se repite la intro y la ritmica toca estos acordes,
 luego los repite durante el solo)

G B E C E C A D

-------------------------------------------------------------|
-----8-7-5-----8-7-5--7-----8-7-8-7-8-10--8-7-5-----------8--|
-5-5-------5--------5---7-----------------------7-5-4-5-7----|
-------------------------------------------------------------|
-------------------------------------------------------------|
-------------------------------------------------------------|

 (se queda sonando el 8 durante el "nos joden" y lo de abajo
se repite varias veces)

----------
--7-8-10-8
----------
----------
----------
----------
Suggest correction
Give kudos to tab author, rate the tab!
1 2 3 4 5
comments
print report bad tab
guest
You may want to rate the tab now too:
select rating
Wanna post a correction for this tab? Suggest correction