Oops, an error
Loading. Please wait.

Odni Records Tab

14 views 1 this week
no commentswrite comment
1 2 3 4 5
3 more votes to show rating
add to favorites
×
Save as Personal and add changes to this tab that will be seen only by you. Learn more ›
×
You can save this tab as Personal to edit and correct it or add notes. All changes will be seen only by you. Learn more »
save as personal
new!
launch autoscroll
font size
0
reset
how to read this tab
guitar tuner
Autoscroll
slow
fast
+/-
esc
set tempo
stop
Segismundo toxicomano - ODNI Records:

Esta es una cancion muy facil ke se basa en 5 acordes, escuchar la canción
a la vez ke mirais esta tablatura para que sea mas facil de entender
ahi va:
_____________________________________________________________

0:00

Intro:
_____

    B  B  A#    B  B
|------------------------|
|------------------------|
|---4--4--3-----4--4-----|
|---4--4--3-----4--4-----|
|---2--2--1-----2--2-----|
|------------------------|

0:04

Riff:
____

    A#A#A#   A#A#A# B B B  A#A#A#  F# B
|------------------------------------------|
|------------------------------------------|
|---x-x-3----x-x-3--x-x-4--x-x-3------4----| X2
|---3-3-3----3-3-3--4-4-4--3-3-3---4--4----|
|---1-1-1----1-1-1--2-2-2--1-1-1---4--2----|
|----------------------------------2-------|


A#                    B
Bienvenidos al futuro que no vais a morir
A#                         B
más pequeño y llamativo ideal para sobar
A#                            B
pagado un poco mas caro pero todo es calidad
A#                       B
calidad comprimida en formato digital


    A#A#A#   A#A#A# B B B  A#A#A#  F# B
|------------------------------------------|
|------------------------------------------|
|---x-x-3----x-x-3--x-x-4--x-x-3------4----| X2
|---3-3-3----3-3-3--4-4-4--3-3-3---4--4----|
|---1-1-1----1-1-1--2-2-2--1-1-1---4--2----|
|----------------------------------2-------|


A#                              B
El tiempo pasa no perdona la tecnología ...
A#                               B
Los piratas ya no cobran lo que les regala internet
A#                        B
las ventas caen en picado algo habrá que hacer
A#                      B
aparecen directivos colgados en la red


Estribillo:
__________


 A#A#A#        A#A#A# B B B  A#A#A#  F# B
|---------------------------------------------------|
|---------------------------------------------------|
|x-x-3---------x-x-3--x-x-4--x-x-3-------------4----|
|3-3-3---------3-3-3--4-4-4--3-3-3----------4--4----|
|1-1-1---------1-1-1--2-2-2--1-1-1----------4--2----|
|-------------------------------------------2-------|

Digital digital             Digital digital

 A#A#A#        A#A#A# B B B  A#A#A#  F# B
|---------------------------------------------------|
|---------------------------------------------------|
|x-x-3---------x-x-3--x-x-4--x-x-3-------------4--3-|
|3-3-3---------3-3-3--4-4-4--3-3-3----------4--4--3-|
|1-1-1---------1-1-1--2-2-2--1-1-1----------4--2--1-|
|-------------------------------------------2-------|

Digital digital             Digital digital


(aki una guitarra ace un punteillo y otra guitarra por detras
da unos acordes):

  A#....................................
|-------------------------------------------|
|-------------------------------------------|
|-------------------------------------------| X 2
|--3-3-3-3-3-4-4-4-4-4-3-3-3-3-3-4-4-4-4-4--|
|-------------------------------------------|
|-------------------------------------------|

   B....................................
|-------------------------------------------|
|-------------------------------------------|
|-------------------------------------------| X 2
|--3-3-3-3-3-4-4-4-4-4-6-6-6-6-6-6-6-6-6-6--|
|-------------------------------------------|
|-------------------------------------------|

C#
Especie protegida
B
se pudre en las reservas


    A#A#A#   A#A#A# B B B  A#A#A#  F#F#F# B B
|-----------------------------------------------|
|-----------------------------------------------|
|---x-x-3----x-x-3--x-x-4--x-x-3----------4-4---| X2
|---3-3-3----3-3-3--4-4-4--3-3-3---x-x-x--4-4---|
|---1-1-1----1-1-1--2-2-2--1-1-1---4-4-4--2-2---|
|----------------------------------2-2-2--------|

C#
Quien coño es el pirata
B
que dictase sentencia


 A#A#A#        A#A#A# B B B  A#A#A#  F# B
|---------------------------------------------------|
|---------------------------------------------------|
|x-x-3---------x-x-3--x-x-4--x-x-3-------------4----|
|3-3-3---------3-3-3--4-4-4--3-3-3----------4--4----|
|1-1-1---------1-1-1--2-2-2--1-1-1----------4--2----|
|-------------------------------------------2-------|

Digital digital             Digital digital

 A#A#A#        A#A#A# B B B  A#A#A#  F# B
|---------------------------------------------------|
|---------------------------------------------------|
|x-x-3---------x-x-3--x-x-4--x-x-3-------------4--3-|
|3-3-3---------3-3-3--4-4-4--3-3-3----------4--4--3-|
|1-1-1---------1-1-1--2-2-2--1-1-1----------4--2--1-|
|-------------------------------------------2-------|

Digital digital             Digital digital
______________________________________________________________

Para alguna duda o algo: miguelng12@

salú y punk rock!!
Suggest correction
Give kudos to tab author, rate the tab!
1 2 3 4 5
comments
print report bad tab
guest
Wanna post a correction for this tab? Suggest correction