Oops, an error
Loading. Please wait.

S.o.s.pechos.o.s. Tab

49 views 3 this week
no commentswrite comment
1 2 3 4 5
3 more votes to show rating
add to favorites
launch autoscroll
font size
0
reset
how to read this tab
guitar tuner
Autoscroll
slow
fast
+/-
esc
set tempo
stop
Help us to improve Ultimate-Guitar.com Take our survey!
×
INTRO (Punteo):

---------------------------------------------
-----------------------7-5---5---5-7-8---8---
-4---4---4-6-7---7---7-----4---4-------7---7-
---4---4-------7---7-------------------------
---------------------------------------------
---------------------------------------------


RIFF:

 D-C#     B     B-C#  D      D-F#m  Gm   Gm-F#m  Em
-----|-----------------------------------------------
-----|-----------------------------------------------
-7-6-|-4-4-4-4--4-6-7-7-7-7--7-6-7-7-7-7--7-6-4-4-4-4
-7-6-|-4-4-4-4--4-6-7-7-7-7--7-4-5-5-5-5--5-4-2-2-2-2
-5-4-|-2-2-2-2--2-4-5-5-5-5--5-----------------------
-----|-----------------------------------------------
(D-C# sólo se toca la primera vez en toda la canción)


Primero se toca el punteo sólo.
Después se toca el punteo más el riff dos veces.


B            D            |
Voy bastante pasao        |
                          |
Gm                        | (Palm mute)
Solo y encabronao         |
                          |
Em                        |
Conduciendo y en mi estao |

e -----------
B -8~--8-7-5-
G -----------

B
Ahora ya empiezo a saber donde estoy,

D
La adrenalina me empieza a subir.

Gm
Escuchando a toda ostia

Em
lo mejor de cicatriz


  B       D     Em Fm~Em~Fm
-------------------------------
-------------------------------
-X-X-4--X-X-7--X-X-9~10~9~10---    (x3)
-X-X-4--X-X-7--X-X-9~10~9~10---
-2-2-2--5-5-5--7-7-7~8~~7~8----
-------------------------------

Las notas que tienen X se tocan en palm mute.
Haciendo dos B en palm mute y una normal, dos D en palm mute
y una normal, dos Em en palm mute y hacemos una especie de
vibrato entre Em y Fm


Ahora se tocan dos veces el punteo más el riff.


B
Luces y sirenas persiguiéndome.

A
Piernas abiertas contra la pared.

G                        D   A  D-A
Encañonado, las manos esposadas.

B
Hostias que llueven en un rincón.

A
No tiene salida esta habitación.

G                        D   A  D-A
Cada segundo, una nueva patada


B                    D
No, no, no me vais a convencer.

Gm
¿Qué hostias queréis de mi?           [x2]

Em
No tengo nada que decir.


                                           B.........D       D
                                       --------------------------
Victimas de su puto control.           --------------------------
Todos sospechosos, todos a prisión.    -4-4-4-4-4-7-7-7-7-7--7-7-
No estás a salvo, teme lo peor.        -4-4-4-4-4-7-7-7-7-7--7-7-
El punto de mira en ti se fijó.        -2-2-2-2-2-5-5-5-5-5--5-5-
 (A                F#)                 --------------------------
                                        ········PM·········


Esta parte una guitarra la toca con B D en palm mute,
soltando al final en D.
Al final, entra la otra guitarra y toca (A F#)

B            D
Victimas de su puto control.

B                  D
Todos sospechosos, todos a prisión.

B                 D
No estás a salvo, teme lo peor.

A                    F#
El punto de mira en ti se fijó.


   B  F#m    D   F#m    Em...    F#m
----------------------|-----------------
----------------------|-----------------
-4-4-4-6---7-7-7-6-6--|--4----6-6-6-6-6-
-4-4-4-4---7-7-7-4-4--|--2----4-4-4-4-4-
-2-2-2-----5-5-5------|-----------------
----------------------|-----------------
        (x3)

Se toca tres veces B F#m-D F#m y después Em-F#m


G ------------------------------------------
D --4-4-4-4-5-5-5-5-------------------------
A ------------------7-7-7-7-5-5-5-5-2-2-2-2-
E ------------------------------------------


Ahora se toca una vez el punteo más el riff.
Y al acabar se toca el sólo más el riff.


SOLO
-----------------------------------------------------------14~--12-
-12----12----12-14-15----------14-15-17-15-12~-14-15-17-15---------
----11----11----------14-12-11-------------------------------------
-------------------------------------------------------------------
-------------------------------------------------------------------
-------------------------------------------------------------------


B
Luces y sirenas persiguiéndome.

A
Piernas abiertas contra la pared.

G                        D   A  D-A
Encañonado, las manos esposadas.

B
Hostias que llueven en un rincón.

A
No tiene salida esta habitación.

G                        D   A  D-A
Cada segundo, una nueva patada.


B                    D
No, no, no me vais a convencer.

Gm
¿Qué hostias queréis de mi?           [x4]

Em
No tengo nada que decir.


        B         B A         B         B
------------------------------------------
------------------------------------------
-4-4-4-4-4-4-4-4--4-2--4-4-4-4-4-4-4-4--4-
-4-4-4-4-4-4-4-4--4-2--4-4-4-4-4-4-4-4--4-
-2-2-2-2-2-2-2-2--2-0--2-2-2-2-2-2-2-2--2-
------------------------------------------
 ······PM·······       ·······PM······
Suggest correction
Give kudos to tab author, rate the tab!
1 2 3 4 5
comments
print report bad tab
guest
You may want to rate the tab now too:
select rating
Wanna post a correction for this tab? Suggest correction