Oops, an error
Loading. Please wait.

Y Gritaré Bass

40 views 1 this week
no commentswrite comment
1 2 3 4 5
3 more votes to show rating
add to favorites
launch autoscroll
font size
0
reset
guitar tuner
×
Best way to learn
"Y Gritaré"
Autoscroll
slow
fast
+/-
esc
set tempo
stop
Esta la partitura del bajo para la cancion Y Gritare!! deben
escucharla para saber donde van correctamente los tiempos,
con eso van sakando los tiempos a oido, esta cancion es muy
sheeevere pero tienen ke ponerle cuidado muy bn, ya ke la
cancion va kambiando konstantemente. Ahi va:

~~:Este simbolo indica ke toka sakar el tiempo de la nota
a odio.
**:Este indika ke toka dejar sonar la nota.

Intro: Esta parte de la cancion van los acordes F#, E, B se
tokan 2 veces la guitarra va sola.

Aqui entra el bajo kon la 2 guitarra ke va puntiando kasi toda
la cancion.
Verso
G/--------------------------/
D/--------------------------/
A/------------------2222~~--/ (6x)
E/--2222~~--0000~~----------/

Coro
G/------------------------------------------------------/
D/------------------------------------------------------/
A/--5555~~-------5555~~-------5555~~--------------------/ (x2)
E/---------5555~~-------2222~~-------5555~~--7-7-7-777--/

Aqui va el solo del bajo kon la batera.
G/--------------------------/
D/--------------------------/
A/------------------2222~~--/ (2x)
E/--2222~~--0000~~----------/

Verso
G/--------------------------/
D/--------------------------/
A/------------------2222~~--/ (2x)
E/--2222~~--0000~~----------/

Aki ba un verso kon 2 partes aki va la primera parte.
G/----------------------------------/
D/----------------------------------/
A/--5555~~------2222~~------2222~~--/
E/--------5555~~------2222~~--------/

Aki va la segunda parte antes del solo de la guitarra.
G/-------------------------------------------------------/
D/-------------------------------------------------------/
A/--5555~~------2222~~------2222~~------2222~~------7**--/
E/--------5555~~------2222~~------2222~~------2222~~-----/

Aqui va solo la guitarra tokando una ves kada nota kon los
acordes B, E, F# y lo hace 2 veces.

Verso diferente kon los acordes B, E, F# en la guitarra y
esto en el bajo.
G/------------------------/
D/------------------------/
A/--2222~~----------------/ (4x)
E/--------0000~~--2222~~--/

aki se hace lo mismo del anterior si no ke mas despacio
esto va antes del puenteo de la guitarra.
G/------------------------------/
D/------------------------------/
A/--2222~~----------------------/ (2x)
E/--------0000~~--2222~~-2-222--/

Aki va el punteo de la guitarra y mientras tanto el bajo
esta haciendo esto:
G/------------------------------------------------------/
D/------------------------------------------------------/
A/--5555~~-------5555~~-------5555~~--------------------/ (x2)
E/---------5555~~-------2222~~-------5555~~--7-7-7-777--/

Aki va el coro para finalizar la cacion.
G/------------------------------------------------------/
D/------------------------------------------------------/
A/--5555~~-------5555~~-------5555~~--------------------/ (x2)
E/---------5555~~-------2222~~-------5555~~--7-7-7-777--/

kon esto finaliza la cancion.
G/----------------------/
D/----------------------/
A/----------------------/
E/--777--777--777--7**--/

Espero ke les sirva esta tablatura para interpretar esta cancion
ke es muy tesa y tambien para ke sepan ke aki en Colombia se escucha
muy buena musik eso si ante todo segismundo es muy teso. Dudas y
preguntas escriban a ik2gang_04@ o si tienen myspace el
mio es  saludos desde Colombia...Gracias
a Burgos por ayudarme a mejorar en el bajose le agradece y lo ke
necesite ya sabe ke kuenta kon migo todobn, sueteres....
Suggest correction
Give kudos to tab author, rate the tab!
1 2 3 4 5
comments
print report bad tab
guest
You may want to rate the tab now too:
select rating
Wanna post a correction for this tab? Suggest correction