Oops, an error
Loading. Please wait.

El Sacrificio Chords

62 views 3 this week
no commentswrite comment
1 2 3 4 5
3 more votes to show rating
add to favorites
launch autoscroll
font size
0
reset
transpose
0
reset
simplify chords
display chords
guitar tuner
Autoscroll
slow
fast
+/-
esc
set tempo
stop
Help us to improve Ultimate-Guitar.com Take our survey!
×
Este es el requinto con el que empieza el canto 
y las notas de acompanamiento son las mismas que 
lleva el canto.

e-----7-7-7--------------7-7--5--5-5-5--7-7-5----5----------------------5-----------------------------
B--7--------7--8--8-8-8-------------------------7------7-7-5-7---7-7-7-----8-7-5----7-----------------
G-------------------------------------------------------------------------------------6-6----6-6----7-
D-----------------------------------------------------------------------------------------------------
A-----------------------------------------------------------------------------------------------------
E

e-----------------------------------------------------------------------------------------------------
B---------------------------7--8--7--5----------------------------------------------------------------
G---6---7-------6--4-----------------------7---6---4--------------------------------------------------
D-----------------------------------------------------------------------------------------------------
A-----------------------------------------------------------------------------------------------------
E-----------------------------------------------------------------------------------------------------

Bm                Em    A
En La cruz del calvario
              D F#7/Bm
fue clavado Jes-u-s
              Em   F#7
y todos mis pecad-o-s
                Bm
los borro mi Jesus

               Em    A
El Sacrificio que Jesus
             D      F#7    Bm
hizo en la cruz por ti por mi
                 Em
es prueba de su amor
    F#7               Bm
que hoy podremos obtener

             Em   A
Ahora vivo seguro
               D F#7/Bm
que con el morare 
             Em   F#7
vivire para cristo
              Bm
y con el reinare

             Em    A
El Sacrificio que Jesus
             D      F#7    Bm
hizo en la cruz por ti por mi
                 Em
es prueba de su amor
    F#7               Bm
que hoy podremos obtener


             Em    A
El Sacrificio que Jesus
             D      F#7    Bm
hizo en la cruz por ti por mi
                 Em
es prueba de su amor
    F#7               Bm
que hoy podremos obtener

Al final sigue el requinto y se repite 2 veces.

Saludos a todos aya en Acapulco,en especial a
Yazmin, la quiero mucho, bueno hasta pronto.
'Dios los bendiga'
Suggest correction
Give kudos to tab author, rate the tab!
1 2 3 4 5
comments
print report bad tab
guest
You may want to rate the tab now too:
select rating
Wanna post a correction for this tab? Suggest correction