Oops, an error
Loading. Please wait.

Alcohol Y Masturbarme Más Bass

53 views 1 this week
no commentswrite comment
1 2 3 4 5
3 more votes to show rating
add to favorites
launch autoscroll
font size
0
reset
guitar tuner
×
Best way to learn
"Alcohol Y Masturbarme MÁs"
Autoscroll
slow
fast
+/-
esc
set tempo
stop
SON MUCHOS CAMBIOS, Y UNO K OTRO ADORNO, PERO ESTA MUI FACIL.
DISFRUTEN!! JEJE.

Intro

G|---------------|
D|---------------|
A|-5-2-------5---|
E|-----3---3---5-|X2


G|-------------------------------|
D|-------------------------------|
A|-5555-2222-----------5555------|
E|-----------3333-3333------5555-|

G|-------------------------------|
D|-------------------------------|
A|-5555-2222----------------5555-|
E|-----------3333-3333-5555------|

G|-------------------------|
D|-------------------------|
A|-55555-22222-------------|
E|-------------55555-33333-|X2

kuando yo te konoci estaba solo me habian dejado
entre tragos y rekuerdos te olvidaba y regresabas

G|-------------------------------|
D|-------------------------------|
A|-----------5555-5555-5555-5555-|
E|-3333-5555-----5----5----5-----|

sho te di mi corazon

G|-------------------------|
D|-------------------------|
A|-55555-22222-------------|
E|-------------55555-33333-|X2

me mataba en las noches en la kama pensando en nada
odiaba ke al masturbarme akabara veia tu kara

G|---------------------------|
D|---------------------------|
A|-----------5555------------|
E|-3333-5555------0-2-3-3333-|

sho te di mi corazo

G|------------------------------|
D|------------------------------|
A|-----------5555---------------|
E|-3333-5555------3333-3-4-5555-|

pero tu sangre no me pudo aceptaaaaaar

G|----------------|
D|----------------|
A|-5555-2222------|
E|-----------3333-|X3

G|----------------|
D|----------------|
A|-5555-7777------|
E|-----------5555-|

G|-------------------------|
D|-------------------------|
A|-55555-22222-------------|
E|-------------55555-33333-|X4

despues de ke me veni sentia el vacio ke sentia en ti
kuando estoy sin un amigo bebo solo y pienso más en ti
ya no tengo ke perder si me dajaron una vez más
otra vez voy a olvidar alcohol, y masturbarme mas!!


G|-------------------------|
D|-------------------------|
A|-55555-------22222-------|
E|-------55555-------33333-|X2

y otra vez, y otra vez, y otra vez, y otra vez
y otra vez, y otra vez, y otra vez, y otra vez

G|-------|---|
D|-------|---|
A|-------|-5-|FIN!
E|-55555-|---|

y otra veeez
Suggest correction
Give kudos to tab author, rate the tab!
1 2 3 4 5
comments
print report bad tab
guest
You may want to rate the tab now too:
select rating
Wanna post a correction for this tab? Suggest correction