Oops, an error
Loading. Please wait.

La Única Mujer Tab

64 views 3 this week
no commentswrite comment
1 2 3 4 5
3 more votes to show rating
add to favorites
launch autoscroll
font size
0
reset
how to read this tab
guitar tuner
Autoscroll
slow
fast
+/-
esc
set tempo
stop
Help us to improve Ultimate-Guitar.com Take our survey!
×
Aki lez dej0 ezta r0lilla de Seguimos Perdiendo. ez la primera

canzi0n que zub0 y cre0 que esta c0n muy pokoz errorez.

En el rekint0, punteada, puntill0 0 k0m0 zea ke l0 k0n0zkan,

pueden tokarl0 bajando un traste p0rke kuand0 zake la canci0n

mi guitarra estaba kon medi0 t0n0 bajo

(en vez de 10, 9. en vez de 8, 7. etc)loz demaz akordez que

eztan en kinta pueden tokarl0s tal k0m0 zon

Intro

   E5 x9
             C5            D5          G5    F#5   E5
d#|--------------------------------------------------|
A#|--------------------------------------------------|
F#|----10----8--------------------8------------------|
C#|-10----10---11--11-10-11-8--8----11-10--10-8-10---|
G#|------------------------------------------------8-|
D#|--------------------------------------------------|

                  B5           C5               D5
d#|--------------------------------------------------|
A#|--------------------------------------------------|
F#|---------------------------------------------8----|
C#|---------8-10--10-10--10-10-11--11-11--11-11------|
G#|-8-11--11-----------------------------------------|
D#|--------------------------------------------------|

               G5               C5            G5
d#|--------------------------------------------------|
A#|-------------------------------------------13--13-|
F#|-10-8---------------------------------8-----------|
C#|-------8-11-10--10-10-10-10- 11-11-11---11--------|
G#|--------------------------------------------------|
D#|--------------------------------------------------|

              C5                G5
d#|-----------------------------------------|
A#|-13-13-13--------------------13--13------|
F#|---------------------8-------------------|
C#|-----------11--11-11---11----------------|
G#|-----------------------------------------|
D#|-----------------------------------------|


G5                 C5        G5
Hoy me la he encontrado caminando

E5                 D5             G5
hoy me la he encontrado a la infeliz

C5               D5       G5  F#5  E5
que perdió el encanto de todo mi pasado

A5                           D5
que dejó en silencio el porvenir

G5               C5           G5
Hoy me he vuelto a sentir tan solo

E5         D5         G5
creo recordar que fui feliz

C5         D5        G5  F#5  E5
la sonrisa suya, que era mi locura

A5                         D5   E5 x9
que nunca jamás volví a sentir


          C5  D5         G5   F#5     E5
Estoy perdido, es la única mujer que hay

         B5          C5         D5      E5
y en mi delirio no creo poderla olvidar

             C5            D5          G5    F#5   E5
d#|--------------------------------------------------|
A#|--------------------------------------------------|
F#|----10----8--------------------8------------------|
C#|-10----10---11--11-10-11-8--8----11-- 10---8------|
G#|-----------------------------------------------8--|
D#|--------------------------------------------------|

                  B5           C5               D5
d#|--------------------------------------------------|
A#|--------------------------------------------------|
F#|--------------------------------------------8-8-8-|
C#|---------8-10--10-10-10-10-11--11-11-11-11--------|
G#|-8-11-11------------------------------------------|
D#|--------------------------------------------------|

              G5 G5 G5 G5 G5 G5 G5 G5 G5
d#|-----------------------------------------|
A#|-----------13-13-13-13-13-13-13-13-13----|
F#|-8-8-8-8---------------------------------|
C#|-----------------------------------------|
G#|-----------------------------------------|
D#|-----------------------------------------|

          C5  D5         G5   F#5     E5
Estoy perdido, es la única mujer que hay

         B5          C5         D5
y en mi delirio no creo poderla olvidar

    G5             C5                  G5
d#|------------------------------------------------|
A#|------------------------------------13-13-13-13-|
F#|------------------------------------------------|
C#|-10-10-10-10-10-11--11-11-11-11-11--------------|
G#|------------------------------------------------|
D#|------------------------------------------------|

   C5             G5           C5             G5
d#|------------------------------------------------|
A#|---------------13-13-13-13-----------------13---|
F#|----------8--------------------------8----------|
C#|-11-11-11---11--------------11-11-11---11-------|
G#|------------------------------------------------|
D#|------------------------------------------------|

Para comentarioz, mentadaz de madre, quejaz o para pedir
otra tablatura de punk-rock aki lez dejo mi correo
perrodelmal_n30@
comunikenze kon eL_LuiZz
Suggest correction
Give kudos to tab author, rate the tab!
1 2 3 4 5
comments
print report bad tab
guest
You may want to rate the tab now too:
select rating
Wanna post a correction for this tab? Suggest correction