Oops, an error
Loading. Please wait.

Nos Unió El Alcohol Tab

27 views 1 this week
no commentswrite comment
1 2 3 4 5
3 more votes to show rating
add to favorites
launch autoscroll
font size
0
reset
how to read this tab
guitar tuner
Autoscroll
slow
fast
+/-
esc
set tempo
stop
Help us to improve Ultimate-Guitar.com Take our survey!
×
KE ONDA BANDA SUENA MUY PARECIDA
NO CREO KE SEA LA ORIGINLA PERO SUENA CHIDA REMPLAZA
A LA ORIGINAL OK ESCUCHENLA Y TOKENLA OK...

ACOMPAÑAMIENTO DE INTRO: Cm A5 Fm Gm.
e----------------------
B----------------------
G----------------------
D-55-33-22-00----------
A-------------3--------
E----------------------

e----------------------
B----------------------
G----------------------
D-55-33-22-00-2--------
A----------------------
E----------------------

e----------------------
B----------------------
G----------------------
D-55-33-22-00-3--------
A----------------------
E----------------------

e----------------------
B----------------------
G----------------------
D-77-55-33-5-----------
A----------------------
E----------------------

e----------------------
B----------------------
G----------------------
D-555-7-5-3------------
A------------3---------
E----------------------

e----------------------
B----------------------
G----------------------
D-555-7-5-3-2----------
A----------------------
E----------------------

e----------------------
B----------------------
G----------------------
D-55-33-22-00-3--------
A----------------------
E----------------------

e----------------------
B----------------------
G----------------------
D-77-55-33-5-----------
A----------------------
E----------------------

e----------------------
B----------------------
G----------------------
D-555-7-5-3------------
A------------3---------
E----------------------

Cm                       A5
fue en un bar donde te conoci
         Fm                      Gm
en ese hotel del centro yo me enamore de ti
Cm                       A5
fue en un  bar donde te conoci
         Fm                     Gm   Gm-F#-Fm
en ese hotel del centro  me enamore de ti
Fm    Gm          Bm/Cm Bm/Cm
komo alguien komo yoOOOO
Fm    Gm          Bm/Cm Bm/Cm
komo alguien komo voOOOOOOs
Fm    Gm          Cm     Fm-Gm.
es ke nos unio el alcohol

a mi no.

e----------------------
B----------------------
G----------------------
D----------------------
A--3333333333333333----
E----------------------

e----------------------
B----------------------
G----------------------
D-55-33-22-00-2--------
A----------------------
E----------------------

e----------------------
B----------------------
G----------------------
D-55-33-22-00-3--------
A----------------------
E----------------------

e----------------------
B----------------------
G----------------------
D-77-55-33-5-----------
A----------------------
E----------------------

e----------------------
B----------------------
G----------------------
D-555-7-5-3------------
A------------3---------
E----------------------

e----------------------
B----------------------
G----------------------
D-555-7-5-3-2----------
A----------------------
E----------------------

e----------------------
B----------------------
G----------------------
D-55-33-22-00-3--------
A----------------------
E----------------------

e----------------------
B----------------------
G----------------------
D-77-55-33-5-----------
A----------------------
E----------------------

e----------------------
B----------------------
G----------------------
D-555-7-5-3------------
A------------3---------
E----------------------

AKI SE REPITE EL MISMO CIRCULO

Cm A5 Fm Gm.

me acerke a doble A asisti
y nada me ayudaron sigo sin saber de ti
ya buske a una anexo fui
y nada me a ayudado
voy a seguir sin ti
komo alguien komo yo
komo alguien komo vos
es ke nos unio el alcohol
a mi no!

 TERMONA EN Cm.
Suggest correction
Give kudos to tab author, rate the tab!
1 2 3 4 5
comments
print report bad tab
guest
You may want to rate the tab now too:
select rating
Wanna post a correction for this tab? Suggest correction