Oops, an error
Loading. Please wait.

Olvídala Tab

version 2
version 2

Whole song

73 views 1 this week
no commentswrite comment
1 2 3 4 5
3 more votes to show rating
add to favorites
launch autoscroll
font size
0
reset
how to read this tab
guitar tuner
Autoscroll
slow
fast
+/-
esc
set tempo
stop
Help us to improve Ultimate-Guitar.com Take our survey!
×
la neta la version de esta que anda esta medio eriza esta se parece
mas sino pus al mierda!!!!!

intro:
1----------------------------------------------------------
2-----------5--5--------------5----------5--5--------------
3----7-7-7---7--7-7/9-5-9-5--7-7--7-7-7---7--7----7-7------
4---7-7-7-7---7--------7----7------7-7--------7---7-7------
5--------------------------5----------------------5-9------
6----------------------------------------------------------

1----------------------------------------------------------
2----------------------------------------------------------
3-----------------------6/7--x5-------------7-6-4----------
4-7-9-10-9--------------4/5------6/7--6/7---5-4-2----------
5-5-----------7-9-10-9-----------4/5--4/5------------------
6-------------5--------------------------------------------

luego medio fusil

D                                                    A
Como hago compañero para decirle que no he podido olvidarla
         G                                                    D fig1
Que por más que lo intente, sus recuerdos siempre habitan,en mi mente
     D                                                A
Que no puedo pensar siquiera un día al verla así de lejos
      G                                                  D C#
Que siento enloquecer al verla alegre sonreír y no es conmigo


   Bm                                                   F#
Yo se que le falte a su amor tal vez porque a mi otra ilusión
me sonreía
       G                                         A D C#
Yo pense que sin ella en mi vida se acabaría el mundo
     Bm                                    F#
Yo se que estas arrepentido y duele, pero ya no eres nada
en su vida
        G                                     A D
Ella encontró por quien vivir y que la busques es absurdo


    D                                   A
Olvídala,no es fácil para mí, por eso quiero hablarle
                 G                      D
Si es preciso rogarle que regrese a mi vida,inténtalo
                                          A                   G
Es que no puedo hacerlo,si por dejar sus sueños le cause mil heridas
                  D C#
Y LA QUIEBRA HASTA DENTRO

    Bm              F#         G              D
OLVIDALA MEJOR OLVIDALA, ARRANCALA DE TI,QUE YA TIENE OTRO AMOR
    Bm            F#         G             D
OLVIDALA MEJOR OLVIDALA, ARRANCALA DE TI,BUSCA OTRA ILUSIÓN


D                         A     G                      A D
Y es que no dejan los recuerdos,si yo le enseñe a amar fui su
primer amor
D                  A         G                  A D
No sale de mis pensamientos aun ella vive aquí dentro del corazón

1----------------------------------------------------------
2----------------------------------------------------------
3-----------------------6/7--x5-------------7-6-4-6--------
4-7-9-10-9--------------4/5------6/7--6/7---5-4-2-4--------
5-5-----------7-9-10-9-----------4/5--4/5------------------
6-------------5--------------------------------------------


Hermano es tu deber luchar para olvidar así a quien no te quiere
  ( AQUI NO VA NADA PERO BUENO)
A quien gracias a Dios ya te olvido y encontró a amor en su camino
D                                                      A
No se si por venganza, por rencor o porque tu no le convienes
G                                                     D C#
O tal vez por que nunca perdono que tú le hirieras el cariño


Bm                                                           F#
Mira que tu jugaste a dos amores cuando lo eras todo en su mirada
G                                               A
Yo se que le falte, debo pagarle pero que me perdone
Bm                                                           F#
Yo ya la vi llorar amargas noches cuando injustamente la cambiabas
G                                                          A
Yo estoy arrepentido y quiero que ella olvide que tuve errores


D
OLVIDALA, yo no lo quiero hacer
               A                   G
Luchare por tenerla, ella es cielo es estrella,ella es todo
   D
EN MI VIDA.
                                                A
LA QUIERO,no te digo mentiras y aunque se pase el tiempo.
                    G
ELLA ES TODO EN MI VIDA
           D C#
Y las drogas no dejo


Bm                  F#         G              D
OLVIDALA MEJOR OLVIDALA, ARRANCALA DE TI  YA TIENE OTRO AMOR
Bm                 F#         G              D
OLVIDALA MEJOR OLVIDALA, ARRANCALA DE TI  BUSCA OTRA ILUSIÓN

D                         A     G                       D
Y es que no dejan los recuerdos si yo le enseñe a amar fui su primer
amor
D                    A       G                   D
No Sale de mis pensamientos aun ella vive aquí dentro del CORAZON

1-----------------------------------------------------------------
2-----------------------------------------------------------------
3---7-7-7-7-9-9-9-9-11-11-11-11---7-------------------------------
4----7-7-7-7-7-7-7-7--7--7--7-----7-------------------------------
5---------------------------------5-------------------------------
6-----------------------------------------------------------------

fig1
2------------------
3---7-6-4----------
4---5-5-2----------

PUES AHI ESTA la neta son 2 liras pero me da hueva explicarlas
si no haber si la subo va ¡pank rock, cerveza y mis amigos!!!
 y lo demas k se joda awan77e seguimos
Suggest correction
Give kudos to tab author, rate the tab!
1 2 3 4 5
comments
print report bad tab
guest
You may want to rate the tab now too:
select rating
Wanna post a correction for this tab? Suggest correction