Oops, an error
Loading. Please wait.

Se Me Entumió La Mano De Tokar Ska Bass Tab

14 views 1 this week
no commentswrite comment
1 2 3 4 5
3 more votes to show rating
add to favorites
launch autoscroll
font size
0
reset
guitar tuner
Autoscroll
slow
fast
+/-
esc
set tempo
stop
Help us to improve Ultimate-Guitar.com Take our survey!
×
Esta es una rola muy curada de los seguimos perdiendo
se llama SE ME ENTUMIO LA MANO DE TOKAR SKA

Al entrar la bateria :

G:-------------------------------------:
D:------------252--474-----------------:
A:------252-3-----5-----252------------:
E:-12/-3---------------3---------------:

G:-------------------------------------:
D:-------252--474----------------------:   X 2
A:--252-3----5------252----------------:
E:-3--------------3--------------------:

EMPIEZA LA DISTORCION

G:-------------------------------------:
D:-------------------------------------: X 2
A:-----33335555------------------------:
E:-3333--------3333--------------------:

G:-------------------------------------:
D:-------------------------------------:
A:-------------------------------------:
E:-3~----------------------------------:

Y ASI AKABA

SKA-PUNK!!!!
Suggest correction
Give kudos to tab author, rate the tab!
1 2 3 4 5
comments
print report bad tab
guest
You may want to rate the tab now too:
select rating
Wanna post a correction for this tab? Suggest correction