Oops, an error
Loading. Please wait.

Alguien Que Te Quiera Más Tab

31 views 1 this week
no commentswrite comment
1 2 3 4 5
3 more votes to show rating
add to favorites
×
Save as Personal and add changes to this tab that will be seen only by you. Learn more ›
×
You can save this tab as Personal to edit and correct it or add notes. All changes will be seen only by you. Learn more »
save as personal
new!
launch autoscroll
font size
0
reset
how to read this tab
guitar tuner
Autoscroll
slow
fast
+/-
esc
set tempo
stop
Esta es una buena canción de un grupo chihuahuense llamado
Sentido Contrario
(
Esta rolita pegó mucho a mediados de los 90s allá en el norte,
así que aquí está la transcripción para los que les gustaba,
está casi toda en piano, pero son los acordes para guitarra,
y la adaptación del riff del intro,
así como el solo de guitarra.
Los riffs del coro final no los agregué, pero ahí improvisenle.
Dedicada a mis 2 mujeres, a mi bebé y al MF.


  C     F            C              F             G

E  -10-8-7-7-8-5---10-8-7-7-8-3---10-8-7-7-8-5--------------------|
B  ---------------------------------------------------------------|
G  ---------------------------------------------------------------|
D  ---------------------------------------------------------------|
A  ---------------------------------------------------------------|
E  ---------------------------------------------------------------|


C                G
Ayer te vi pasar,
Am             F - G
ibas con tus amigas.
C                 G
Debiste imaginar
Am               F-G      C       (A----3-2-0---|)
lo que yo pretendía, oh sí.

Am                Dm
No sé si me conoces,
        F                G
me gustaría poderte saludar.

C                        G
Y pienso en tí toda la tarde,
Am                   F - G
estás dentro de mi corazón.
C                       G
Pienso en tí a cada instante
Am                     F - G
en que estás lejos de mí.

C    G         Am
Tal vez me querrás,
       F        G    C
o tal vez me olvidarás
C     G       Am
Tal vez lloverá
        F   G       Am
cuando te vea marchar.
Am    C      Dm
Sabrán, sabrás
          F    G     Am
que te quiero de verdad.
Am    C     Dm
No encontrarás
         F       G     C
alguien que te quiera más.

  C      F               C              F          G

E  -10-8-7-7-8-5---10-8-7-7-8-3---10-8-7-7-8-5--------------------|
B  ---------------------------------------------------------------|
G  ---------------------------------------------------------------|
D  ---------------------------------------------------------------|
A  ---------------------------------------------------------------|
E  ---------------------------------------------------------------|
                      Ayer te vi pasar...

C                        G
Y pienso en tí toda la tarde,
Am                   F - G
estás dentro de mi corazón.
C                       G
Pienso en tí a cada instante
Am                     F - G
en que estás lejos de mí.

C    G         Am
Tal vez me querrás,
       F        G    C
o tal vez me olvidarás
C     G       Am
Tal vez lloverá
        F   G       Am
cuando te vea marchar.
Am    C      Dm
Sabrán, sabrás
          F    G     Am
que te quiero de verdad.
Am    C     Dm
No encontrarás
         F       G     C
alguien que te quiera más.

Solo

E  --------10-12vvv--12-13-12--------------------------------------|
B  -/12-13--------------------13-----------------------------------|
G  ------------------------------12-14-12-12/14--------------------|
D  ---------------------------------------------/14-14-14-12-12-10-|
A  ----------------------------------------------------------------|
E  ----------------------------------------------------------------|

E  ---------------------------------------------------------------|
B  ------------------------------10vvvvv-10/8vvvv-----------------|
G  ---------------------12-12vv-----------------------------------|
D  -------10-12-10h1213-------------------------------------------|
A  -10-12---------------------------------------------------------|
E  ---------------------------------------------------------------|

Siiiiiiiii....
C     G        Am
Tal vez me querrás,
       F        G    C
o tal vez me olvidarás
C     G       Am
Tal vez lloverá
        F   G       Am
cuando te vea marchar.
Am    C      Dm
Sabrán, sabrás
          F    G     Am
que te quiero de verdad.
Am    C     Dm
No encontrarás
         F       G     C
alguien que te quiera más.

C   Am    Dm

       F        G     C
alguien que te quiera más.

C   Am    Dm

       F       G     C
alguien que te quiera más.
Suggest correction
Give kudos to tab author, rate the tab!
1 2 3 4 5
comments
print report bad tab
guest
Wanna post a correction for this tab? Suggest correction