Oops, an error
Loading. Please wait.

Cuando Vendrás Bass

28 views 1 this week
no commentswrite comment
1 2 3 4 5
3 more votes to show rating
add to favorites
launch autoscroll
font size
0
reset
guitar tuner
Autoscroll
slow
fast
+/-
esc
set tempo
stop
  El mayor exponente del rock latino(aunque nadie los conoz-
can). Yo creci con la musica de estos locos, y fuera de ser
mierda rosa como el rock en espanol de ahora, las canciones
aun te explota en la cara diciendote lo mierda que es la so-
ciedad.... 

  Esta es unas de las canciones menos conocidas "Cuando
 Vendras" un poco cursi pero no jodas si no te gusto te 
jodistes!!!!


   Intro

 G-----------------------------------
 D-----------------------------------
 A--------------7-5-4--44--44--5-7---
 E---5--55--55---------------------5-  dos veces

 G-----------------------------------
 D-----------------------------------
 A-5--55-5/7--77--4-44-4p------------
 E-----------------------5-----------
Suggest correction
Give kudos to tab author, rate the tab!
1 2 3 4 5
comments
print report bad tab
guest
Wanna post a correction for this tab? Suggest correction