Oops, an error
Loading. Please wait.

El Péndulo Bass

13 views 1 this week
no commentswrite comment
1 2 3 4 5
3 more votes to show rating
add to favorites
launch autoscroll
font size
0
reset
guitar tuner
×
Best way to learn
"El Péndulo"
Autoscroll
slow
fast
+/-
esc
set tempo
stop
El bajo al principio sólo acentúa las notas tónicas de
los acordes:

G|--------|--------|
D|--------|--------|
A|--------|--------|
E|5-------|3-------|

durante el coro hay un riff en algunas partes. Deben
oír la canción porque es para acentuar ciertas partes
de la letra:

G|--------|--------|
D|--------|------5-|
A|--------|--5/7---|
E|5-------|3-------|

Y el coro es así:

G|--------|-----------------|----|----|
D|--------|-------------5-7-|----|----|
A|3-------|--3/5-5-5(7)-----|1---|----|
E|--------|3----------------|----|1---|

Y así es en toda la canción. En la estrofa si quieres puedes
poner un si bemol después del sol para acentuar la tercera
menor de la guitarra.
¡EL SENTIMIENTO NO HA MUERTO!
Suggest correction
Give kudos to tab author, rate the tab!
1 2 3 4 5
comments
print report bad tab
guest
You may want to rate the tab now too:
select rating
Wanna post a correction for this tab? Suggest correction