Oops, an error
Loading. Please wait.

Manos Frías Bass

31 views 1 this week
no commentswrite comment
1 2 3 4 5
3 more votes to show rating
add to favorites
launch autoscroll
font size
0
reset
guitar tuner
×
Best way to learn
"Manos Frías"
Autoscroll
slow
fast
+/-
esc
set tempo
stop
Nota esta en una afinación por MI y recomiendo escuchar la 
cancion para sacarla 

El verso de la cancion es asi

----------------3-33-3-------------------------
-7-77-7--3-33-3--------5-55-5------------------
-----------------------------------------------
-----------------------------------------------

Hasta que viene el coro que seria asi

---------------3-33-3---------------
-5-55-5-3-33-3---------3-33-3-------
------------------------------------
------------------------------------

Y luego lo repites de nuevo y es todo

Es una cancion muy facil de tocarla 
solo hay que darle algo de oido y mas nada

Cualquier duda escribir a Rammsquake@

Y VIVA SENTIMIENTO MUERTO
Suggest correction
Give kudos to tab author, rate the tab!
1 2 3 4 5
comments
print report bad tab
guest
You may want to rate the tab now too:
select rating
Wanna post a correction for this tab? Suggest correction