Oops, an error
Loading. Please wait.

Seres Inmortales Tab

11 views 1 this week
no commentswrite comment
1 2 3 4 5
3 more votes to show rating
add to favorites
launch autoscroll
font size
0
reset
how to read this tab
guitar tuner
Autoscroll
slow
fast
+/-
esc
set tempo
stop
Si les queda duda de como tocarla pueden ver este video donde la
estoy tocando

Q&feature=g-upl&context=G2b5a00bAUAAAAAAAAAA


INTRO

Empieza bajo

G--------------------------------------
D--------------------------------------
A-3-3-3-3-3--6-6-----3-3-3-3-3---------
E----------------6-6------------4-4-6-6

G--------------------------------------
D--------------------------------------
A-3-3-3-3-3--6-6-----3-3-3-3-3-----------3-3-3-3-3
E----------------6-6------------4-4-6-6

Guitarra 1

/       Cm      /      G#       /      A#
E---------------/---------------/----------------------
B-------4-------/---------------/----------------------
G-----5---5-----/---------------/----------------------
D---5-------5---/------6--------/-------8--------------  x2
A-3-----------3-/----6----------/-----8----------------
E---------------/--4------------/---6------------------

La tercera vez que lo esta tocando e Cm entra la otra guitarra

guitarra 2

E----------------------------------------------------------------------
B----11s13--13-15-16-18-18-16-15-13----13------------------------------
G-----------------------------------15----15-13-15--17-13-17-15-19-17--
D----------------------------------------------------------------------  x3
A----------------------------------------------------------------------
E----------------------------------------------------------------------

E-----------------------------------------------------------
B-13s16-16-18-20-21-20-18-16--------------------------------
G-----------------------------15-13-15-17-13-17-15-19-17----
D-----------------------------------------------------------
A-----------------------------------------------------------
E-----------------------------------------------------------

E-----------------------------------------------------------
B-13s16-16-18-20-21-20-18-16--------------------------------
G-----------------------------15-13-15-17-13-17-15-19-24----
D-----------------------------------------------------------
A-----------------------------------------------------------
E-----------------------------------------------------------

C# G# A#

C
Ahora llegó el momento que me da libertad
                           G#          A#
venciendo el sufrimiento, empiezo a caminar
C
viendo pasar la vida, he vuelto a recordar

que pude vencer la angustia
   G#                 A#      C G# A# x3 C G# A# F
el triunfo ptonto está.(x2)

CORO:
G#             A#       C
Hey!, no tienes que temer
    G#             A#       C
la muerte un paso es
    G#             A#       C
Hey! buscad y alcanzarás
    G#             A#       C
la grandiosa majestad.(x2)

SOLO

C D# A#

E-------------------------------------------------
B----------------------11s13-15-13------13--------
G-----------------------------------15------------
D-------------------------------------------------
A--3-3-3-3-3-3-6-6--------------------------------
E------------------6-6----------------------------

C
Ven a buscar, la eternidad,
       G#        A#
aún tienes tiempo para caminar,
C
solo los fuertes llegan a El
G#          A#
recuerda que eres un ser inmortal
C
tu gran corona estara aquí
           G#      A#
debes de ser semejante a El
C
nunca desmayes ni heches atrás
              G#        A#
recuerda que eres un ser inmortal.

C--C--C--G#--A#

C
Abre tu mente ya, ya no te engañes más
                    G#      A#
Dios ha vencido ya. A la muerte...(x6)
Suggest correction
Give kudos to tab author, rate the tab!
1 2 3 4 5
comments
print report bad tab
guest
You may want to rate the tab now too:
select rating
Wanna post a correction for this tab? Suggest correction