Oops, an error
Loading. Please wait.

Hoy Descubrí Chords

42 views 1 this week
no commentswrite comment
1 2 3 4 5
3 more votes to show rating
add to favorites
launch autoscroll
font size
0
reset
transpose
0
reset
display chords
guitar tuner
Autoscroll
slow
fast
+/-
esc
set tempo
stop
Help us to improve Ultimate-Guitar.com Take our survey!
×
e--------------------------------------------------------------------------------------------------
B -------------------------------------------------------------------------------------------------
G--------------------------------------------------------------------------------------------------
D----------------10--------10----11----10----9------3-----3-----4---3--------5------5----5---
A--------------------------------------------------------------------------------------------------
E-------8----8------8--8-------8-----8-----8----1-1---1-1----1-----1---3-3-----3-3----3-----

e------------------------------------------------------------------------------------------
B-----------------------------------------------------------------------------------------
G-----------------------------------------------------------------------------------------
D---3H53--------------------------------------------------------------------------------
A-----------5---3-----------------5-3-0-3-----------------------------------------------
E------------------------------------------------------------------------------------------

C             
Hoy descubri
                       A m 
Que tu sientes algo por mi
                    F
Y no puedo creer asi
           G
Te perdi
     C
No logro entender 
              Am
Tanto amor que yo te di
                 F
Como al agua del rio hacia el mar
            G
Se extendio

CORO=
C                         Am
Otro cielo encontraras
                                     F
En el que estemos los dos
                 G
Para siempre
C                               Am
Y si tu sientes algo por mi
                              F
Solo tienes que decir
            G
Te extraño

e--------------------------------------------------------------------------------------------------
B -------------------------------------------------------------------------------------------------
G--------------------------------------------------------------------------------------------------
D----------------10--------10----11----10----9------3-----3-----4---3--------5------5----5---
A--------------------------------------------------------------------------------------------------
E-------8----8------8--8-------8-----8-----8----1-1---1-1----1-----1---3-3-----3-3----3-----

e------------------------------------------------------------------------------------------
B-----------------------------------------------------------------------------------------
G-----------------------------------------------------------------------------------------
D---3H53--------------------------------------------------------------------------------
A-----------5---3-----------------5-3-0-3-----------------------------------------------
E------------------------------------------------------------------------------------------


Otro sol 

Has encontrado hoy

Aunque me mires asi

No comprendo

Es la ilucion

La que me hace seguir en pie

Con dolores que causa mi piel

Por ti

CORO=

Eres la parte ideal

Que me hace acompletar

A etrnidad

Y si tu sientes por mi 

Lo que yo siento por ti

Te extraño

e--------------------------------------------------------------------------------------------------
B -------------------------------------------------------------------------------------------------
G--------------------------------------------------------------------------------------------------
D----------------10--------10----11----10----9------3-----3-----4---3--------5------5----5---
A--------------------------------------------------------------------------------------------------
E-------8----8------8--8-------8-----8-----8----1-1---1-1----1-----1---3-3-----3-3----3-----

e------------------------------------------------------------------------------------------
B-----------------------------------------------------------------------------------------
G-----------------------------------------------------------------------------------------
D---3H53--------------------------------------------------------------------------------
A-----------5---3-----------------5-3-0-3-----------------------------------------------
E------------------------------------------------------------------------------------------

Otro cielo encontraras

En el que estemos los dos

Para siempre

Y si tu sientes algo por mi

Solo tienes que decir

Te extraño


Y del amor que siento

Y del amor que siento

Aqui

Aqui

e--------------------------------------------------------------------------------------------------
B -------------------------------------------------------------------------------------------------
G--------------------------------------------------------------------------------------------------
D----------------10--------10----11----10----9------3-----3-----4---3--------5------5----5---
A--------------------------------------------------------------------------------------------------
E-------8----8------8--8-------8-----8-----8----1-1---1-1----1-----1---3-3-----3-3----3-----

e------------------------------------------------------------------------------------------
B-----------------------------------------------------------------------------------------
G-----------------------------------------------------------------------------------------
D---3H53--------------------------------------------------------------------------------
A-----------5---3-----------------5-3-0-3-----------------------------------------------
E---------------------------------------------------------------------------------------
Suggest correction
Give kudos to tab author, rate the tab!
1 2 3 4 5
comments
print report bad tab
guest
You may want to rate the tab now too:
select rating
Wanna post a correction for this tab? Suggest correction