Oops, an error
Loading. Please wait.

Cuídense De Mí Esta Noche Chords

8 views 1 this week
no commentswrite comment
1 2 3 4 5
3 more votes to show rating
add to favorites
launch autoscroll
font size
0
reset
transpose
0
reset
display chords
guitar tuner
Autoscroll
slow
fast
+/-
esc
set tempo
stop
Help us to improve Ultimate-Guitar.com Take our survey!
×
        Cuidense de mi Esta Noche/
               Hoy Traigo el Diablo por Dentro

Esta cancion tiene los 2 nombres en el cd
Sergio ARau y la venganza de moctezuma
y en el de sergio arau y los mismisimos angeles


Intro:  G C D C


CORO: igual que el intro

   cuidense de mi esta noche
   cuidense de mi esta noche
   traigo el diablo por dentro
   traigo el diablo por dentro
   cuidense de mi esta noche


 C            F         Bb
salgo de mi, comienzo a reptar,
 C            F         Bb
no creo que nadie hoy se pueda salvar,
 C            F         Bb
escapa de mi, te puedo raptar
 D
y lo peor del caso es que te puede gustar.


CORO


 C              F          Bb
escondete aqui, escondete alla,
 C              F          Bb
sea donde sea yo te voy a econtrar,
 C              F          Bb
ponte a comer, ponte a tomar,
 D
rapido que el mundo se nos puede acabar.

CORO


 E             C         D      G
mi reino es de mezclilla y lentejuela.
 E             C    D     G
mi lugar es el nido de tu amor
 E                C    D        G     C D E
mi ley la impongo aca lejos del cielo
   C             D            G
y tmb lestraigo aki mi rock n roll


SOLO (igual que el coro)

Bajo hace
Y lo acompania la guitarra:

    G                D
G|-----------------|-------------------|
D|-----------------|-------------------|
A|-----------------|-0h5h7--0h5h7------|
E|-0h3h5--0h3h5-x2-|----------------x2-|


   E G A  E G A   A D E  A D E
G|--------------|-----------------|  LA GUITARRA
D|--------------|-----------------|   HACE LOS ACORDES
A|--------------|-0-5-7--0-5-7----|    DE ARRIBA
E|-0-3-5--0-3-5-|-----------------|


G|--------------------|-----------------------|
D|--------------------|-----------------------|
A|--------------------|-00-55-77--00-55-77----|
E|-00-33-55--00-33-55-|-----------------------|

G|--------------------|----------------------|
D|--------------------|----------------------|
A|--------------------|----7-5-7-5-----------|
E|-00-33-55--00-33-55-|--5---------7-5-------|


CORO con ritmo charro


 C              F          Bb
hagamoslo aqui, hagamoslo alla,
 C              F          Bb
hagamos lo que hagamos tu lo vas a gozar.
 C              F          Bb
el pasado se fue, el futuro no hay,
 D
presenten el presente, yo reparto el placer.


CORO

 C             G
dame las dos, dame las tres,
 C         G     C
al derecho y al revez
Suggest correction
Give kudos to tab author, rate the tab!
1 2 3 4 5
comments
print report bad tab
guest
You may want to rate the tab now too:
select rating
Wanna post a correction for this tab? Suggest correction