Oops, an error
Loading. Please wait.

Hasta Que Te Conocí Tab

15 views 1 this week
no commentswrite comment
1 2 3 4 5
3 more votes to show rating
add to favorites
launch autoscroll
font size
0
reset
how to read this tab
guitar tuner
×
Best way to learn
"Hasta Que Te Conocí"
Autoscroll
slow
fast
+/-
esc
set tempo
stop
*Los acordes para esta cancion son los siguientes


Intro.     G  Em  C  D

Med.       C   G  A7 D


                   G                  Em        C                  D                G     
e--7--8--7----------------7--8--7---------------------7--8---------------7---------------7---------
-------------10----8---------------10--8--------8--8---------8-----8--8-----10--8---8--8----8--8---
---------------------------------------------------------------------------------------------------
---------------------------------------------------------------------------------------------------
---------------------------------------------------------------------------------------------------
E--------------------------------------------------------------------------------------------------


Med.


                 C                       G                         A7                       G
e-------7--10----12------10--9---8---9--10--------15----12-12-12---14------14---13--12--13--14-----
B-8--8-----------13------12--11--10--11-12-------------------------15------15---14--13--14--15-----
G--------------------------------------------------------------------------------------------------


Se repite el Intro pero con otro sencillo arreglo*
                      G                           Em(despues de este pequeno cambio 
                                                     los demas requintos siguen igual)
e--7--8--7----------------------7--8--7------------------------------------------------------------
B-----------10--8--7--8-----------------10--8--7--8------------------------------------------------
G--------------------------------------------------------------------------------------------------


*Estos requintos no son mios me los paso un "amigo"
 y no me acuerdo muy bien de la cansion, espero que 
 LA puedan figurar.

*ACORDES


 G      Em           C            D             A7 
-3-     -0-         -1-           2              0
-0-     -0-         -0-           3              2
-0-     -0-         -0-           2              0
-0-     -2-         -2-           0              2
-2-     -2-         -3-           0              0
-3-     -0-         -0-           0              0
Suggest correction
Give kudos to tab author, rate the tab!
1 2 3 4 5
comments
print report bad tab
guest
You may want to rate the tab now too:
select rating
Wanna post a correction for this tab? Suggest correction