Oops, an error
Loading. Please wait.

A Los Jóvenes De Ayer Bass Tab

169 views 1 this week
no commentswrite comment
1 2 3 4 5
3 more votes to show rating
add to favorites
launch autoscroll
font size
0
reset
guitar tuner
Autoscroll
slow
fast
+/-
esc
set tempo
stop
Help us to improve Ultimate-Guitar.com Take our survey!
×
solo final(8m:57s aprox):
g|--------12-----------12-----------12-------------------------
d|--12-13----15--12-13----15--12-13----15--13-12-10-10----10-12
a|-----------------------------------------------------13------
E|-------------------------------------------------------------


g|------------------------12-12----12-12----11-11-10-11-11-10
d|------------10-12-13-15-------15-------15------------------
a|-12-13-12-13-----------------------------------------------
E|-----------------------------------------------------------
Suggest correction
Give kudos to tab author, rate the tab!
1 2 3 4 5
comments
print report bad tab
guest
You may want to rate the tab now too:
select rating
Wanna post a correction for this tab? Suggest correction