Oops, an error
Loading. Please wait.

Esperando Nacer Tab

version 1
version 1

Whole song

128 views 1 this week
no commentswrite comment
1 2 3 4 5
3 more votes to show rating
add to favorites
launch autoscroll
font size
0
reset
how to read this tab
guitar tuner
Autoscroll
slow
fast
+/-
esc
set tempo
stop
Help us to improve Ultimate-Guitar.com Take our survey!
×
Intro:
------------------------------------------------------------------
-12b14-12b14b12--10-12--12b14---------10-10----12b13b12-10-----10-
--------------------------------9h11--------11--------------11----
------------------------------------------------------------------
------------------------------------------------------------------
------------------------------------------------------------------


-------------------------------------------------------12b14------
-12b13b12--10-12-12b13-12-10----12b14-12b14-10-12-14---------10---
------------------------------------------------------------------
------------------------------------------------------------------
------------------------------------------------------------------
------------------------------------------------------------------


---------------------------------------10-------------------------
----10-10----12b13b12--10-----10-12-14----12b13b12-10-12b13b12-10-
-11-------11---------------11-------------------------------------
------------------------------------------------------------------
------------------------------------------------------------------
------------------------------------------------------------------


-------12b14--12-12-12-14-----------------------------------------
-12-12--------------------12b13-12---12b13b12--10--12p10-12--12-12
------------------------------------------------------------------
------------------------------------------------------------------
------------------------------------------------------------------
------------------------------------------------------------------


-12b14-12-12-12----12-14--16b17-----------------------------------
----------------14----------------12-14-15-12b13b12-------12------
-------------------------------14-------------------14-11----11---
----------------------------------------------------------------14
------------------------------------------------------------------
------------------------------------------------------------------
Suggest correction
Give kudos to tab author, rate the tab!
1 2 3 4 5
comments
print report bad tab
guest
You may want to rate the tab now too:
select rating
Wanna post a correction for this tab? Suggest correction