Oops, an error
Loading. Please wait.

Esperando Nacer Tab

version 2
version 2

Whole song

115 views 1 this week
no commentswrite comment
1 2 3 4 5
3 more votes to show rating
add to favorites
launch autoscroll
font size
0
reset
how to read this tab
guitar tuner
Autoscroll
slow
fast
+/-
esc
set tempo
stop
Help us to improve Ultimate-Guitar.com Take our survey!
×
[INTRO]

E//-------------------------------------
B//-------------------------------------
G//--------17^--17^(17)--15--17--17^----
D//----15-------------------------------
A//-------------------------------------
E//-------------------------------------

E//----------------------------
B//----------------------------
G//--------15-17-17^(17)--15---
D//-15h17----------------------
A//-----------------------------
E//------------------------------

E//-------------------------------------------
B//-----------------------------------------
G//----15--17^(17)--15--15--17^(17)--15-----
D//17---------------------------------------
A//------------------------------------------
E//-------------------------------------------

E//----------------------------
B//--18^--------------------------
G//------15---------15-17-17^(17)--15---
D//------------15h17----------------------
A//-----------------------------
E//------------------------------


E//-------------------------------------
B//-------------------------------------
G//--------17^--17^(17)--15--17--17^----
D//----15-------------------------------
A//-------------------------------------
E//-------------------------------------

------------------------------------------------------------------
------------------------------------------------------------------
-----------18^(18)--18--15--18--18^(18)----------------------------
--17-17----------------------------------17^(17)-------17^(17)--15-
-------------------------------------------------------------------
-------------------------------------------------------------------

------------------------------------------------------
-----------18^(18)--18--15--18--18^(18)--------------
---17-17---------------------------------17^(17)-----
-------------------------------------------------------
------------------------------------------------------
------------------------------------------------------

-------------------------------
---------------------------------
--------17^--17--15-------17--15----
-17----------------17------------
-----------------------------------
-----------------------------------


h= Hammer On
^= arrastre un tono arriba
^()= arrastre un tono arriba, yvuelve a inicial.
Suggest correction
Give kudos to tab author, rate the tab!
1 2 3 4 5
comments
print report bad tab
guest
You may want to rate the tab now too:
select rating
Wanna post a correction for this tab? Suggest correction