Oops, an error
Loading. Please wait.

No Puedo Dejar Bass Tab

149 views 3 this week
no commentswrite comment
1 2 3 4 5
3 more votes to show rating
add to favorites
launch autoscroll
font size
0
reset
guitar tuner
×
Best way to learn
"No Puedo Dejar"
Autoscroll
slow
fast
+/-
esc
set tempo
stop
Intro

E|-------------------|
A|----------18/19----|
D|-17-19-20-------17-|
G|-------------------|

E|--------------------------|
A|----------18/19-----------|
D|-17-19-20-------17--17-17-|
G|--------------------------|

E|---------------------------------------------------------------------------|
A|----------19-19h20-19-17/15-15---------------------------------------------|
D|-17-19-20-----------------------------------17h19-17-----15-17-17/19-17/5--|
G|-------------------------------13/15-17-18------------17-------------------|


Verso

E|---------------------|
A|----------3----------|
D|-5--0-3-5---5--0-3-5-|
G|---------------------|


...yo veo la transformación
y la estoy sintiendo.


++++++++++++++++++++ESTRIBILLO

Pero no puedo dejar...
E|--------------------------|
A|-------7-8---------5/7/5--|
D|-5-7-8-------0-5-7--------|
G|--------------------------|


Pero no puedo dejarte amor..
E|--------------------5/7---|
A|-------5-7--------7-------|
D|-5-7-8------0-5-8-------5-|
G|--------------------------|


no puedo dejar...
E|---------------------------------------------------------------------------|
A|----------19-19h20-19-17/15-15---------------------------------------------|
D|-17-19-20-----------------------------------17h19-17-----15-17-17/19-17/5--|
G|-------------------------------13/15-17-18------------17-------------------|


++++++++++++++++++++++++++++Verso----
Cada vez que duela mas..

E|---------------------|
A|----------3----------|
D|-5--0-3-5---5--0-3-5-|
G|---------------------|


++++++++++++++++++++++++++Estribillo---------
Pero no quiero dejar...

E|--------------------------|
A|-------7-8---------5/7/5--|
D|-5-7-8-------0-5-7--------|
G|--------------------------|


Pero no quiero dejarte amor..
E|----------------|
A|----------3-----|
D|-5--0-3-5---5---|
G|----------------|


no voy a dejar...
E|---------------------------------------------------------------------------|
A|----------19-19h20-19-17/15-15---------------------------------------------|
D|-17-19-20-----------------------------------17h19-17-----15-17-17/19-17/5--|
G|-------------------------------13/15-17-18------------17-------------------|


Mirando al cielo otra vez...
E|----------------------------------------------------------------7/14--14/9|
A|-----------------------------------------------------------5-7------14----|
D|-8--8-8--8-8--8-8--8-5--5-5--5-5--5-5--------------------7----------------|
G|--------------------------------------5--5-5--5-5--5-5-5------------------|


No quiero dejar..

E|--------------------------------------------------------------|
A|--19h20-19-17/15-15-------------------------------------------|
D|--------------------------------17h19-17----15-17-17/19-17/5--|
G|--------------------13/15-17-18-----------17------------------|


SOlO de Guitarra

E|---------------------|
A|----------3----------|   X 4
D|-5--0-3-5---5--0-3-5-|
G|---------------------|


Pero no quiero dejar...
E|--------------------------|
A|-------7-8---------5/7/5--|
D|-5-7-8-------0-5-7--------|
G|--------------------------|


Pero no quiero dejar..
E|----------------|
A|----------3-----|
D|-5--0-3-5---5---|
G|----------------|


no voy a dejar...
E|---------------------------------------------------------------------------|
A|----------19-19h20-19-17/15-15---------------------------------------------|
D|-17-19-20-----------------------------------17h19-17-----15-17-17/19-17/5--|
G|-------------------------------13/15-17-18------------17-------------------|


Bueno, este es un lindo tema y facil
espero que les sea util

cualquier cosa ---> Mail

Adios
Suggest correction
Give kudos to tab author, rate the tab!
1 2 3 4 5
comments
print report bad tab
guest
You may want to rate the tab now too:
select rating
Wanna post a correction for this tab? Suggest correction