Oops, an error
Loading. Please wait.

Noche De Perros Chords

version 2
version 2

Whole song

127 views 1 this week
no commentswrite comment
1 2 3 4 5
3 more votes to show rating
add to favorites
launch autoscroll
font size
0
reset
transpose
0
reset
simplify chords
display chords
guitar tuner
×
Best way to learn
"Noche De Perros"
Autoscroll
slow
fast
+/-
esc
set tempo
stop
base intro con arpegio:[Mim7/9 Do9]x 4
punteo de bajo para intro:

E---------7---------------7-------------------------
A-7^10-9----7---7^10-10-9----7----------------------
D--------------------------------7^9-7--9^12-9------
G---------------------------------------------------
 ^ =ligado

     Em7/9                C9
Esta oscuridad esta noche de perros
     Em7/9                C9
esta soledad que pronto te va a matar
     G              B7/#9      Em7/9    C9 
vas perdido entre las calles que solias andar
     G           B7/#9      Am7   B7/#9       
vas herido como un pájaro en el mar,  sangre.  

[Mim7/9 Do9]x2

(como en la primera estrofa)

Puede ser que estes muy muy lejos de tu casa
justo en el lugar que nació tu corazón
ya te veo entre los autos pidiendo perdón 
mi mirada tiene todo tu dolor, hombre.

(con base)[Mim7/9 Lam7 Do9 Mim7/9] 
nanana nana na na

[Em7/9 Am7]x2       

(como en la primera y segunda estrofa)

Cuando el cielo cae aveces pienso en tu brisa
es muy tarde ya y estoy harto de llorar
no estas solo si es que sabes que muy solo estas
no estas ciego si no ves adonde no hay, nada.

nanana nana na na

(hasta el final): [Mim7/9 Lam7 Do9 Mim7/9]
(con base de bajo):

E--0---2--3--------2--3--------------2--0---------
A------------2--3--------2--0--2--3---------------
D-------------------------------------------------
G------------------------------------------------- 

 Acordes: 

 Em7/9     C9     G    B7/#9   Am7   
E--0---------x-------3-------x-------x-----
A--2---------3-------2-------2-------0-----
D--2---------2-------0-------1-------2-----
G--0---------0-------0-------2-------0-----
B--3---------3-------0-------3-------1-----
e--2---------3-------3-------0-------0-----
Suggest correction
Give kudos to tab author, rate the tab!
1 2 3 4 5
comments
print report bad tab
guest
You may want to rate the tab now too:
select rating
Wanna post a correction for this tab? Suggest correction