Oops, an error
Loading. Please wait.

Nos Veremos Otra Vez Tab

278 views 6 this week
no commentswrite comment
1 2 3 4 5
2 more votes to show rating
add to favorites
×
Save as Personal and add changes to this tab that will be seen only by you. Learn more ›
×
You can save this tab as Personal to edit and correct it or add notes. All changes will be seen only by you. Learn more »
save as personal
new!
launch autoscroll
font size
0
reset
how to read this tab
guitar tuner
Autoscroll
slow
fast
+/-
esc
set tempo
stop
Intro:

Guitarra:

      1-----------------------0------2----2----------------------------------------------------
      2---------2----4---------------------------4----2---0------2-----2--------------------
      3-----------------------------------------------------------------------------------------
      4-----------------------------------------------------------------------------------------
      5-----------------------------------------------------------------------------------------
      6-----------------------------------------------------------------------------------------

Piano:   G#m  C#m


      1----------------------------0-------0-------2-----2--------------------------------
      2----------------------------2-------2------ 4-----4--------7------9-----9--------      
      3---------------------2--------------------------------------8------9--- -9--------
      4--------------2-------------------------------------------------------------------
      5--------0-------------------------------------------------------------------------
      6----------------------------------------------------------------------------------

Piano:   MI   lado#mi   MI FA#  FA#RE#  SOL#  SOL#
  Graves  LA    SI  MI  

      1-------------------------------
      2------0-----------------------
      3------------2-----------------
      4-------------------2----------
      5------------------------------
      6------------------------------
Piano: SI LA  MI


Nota:G#m, quiere decir entre la octaba 3 y 2 tocar las notas en forma creciente de 
      SOL# -SI- RE# - SOL# y volver A RE# 

C#m quiere decir entre la octaba 3 y 2 tocar las notas en forma creciente de 
SOL# - DO# - MIm SOL# y vuelve A MI

La notas qu estan con mayuscula son mayores y las notas en minuscula son las teclas solas


Estrofa 1
(guitarra)

            Aunque  te  Abraces   A  LA luna
      1---------------------------------------------------------------------------------------------------------------------------
      2----------------------2---------------------------------------4---------------------------------------------0------------
      3-----------------2---------------------------------------4-------4------------------------1----------------------2 ------
      4-------------2----------------------------------------4--------------------------------2-------2-----------------------2-
      5--------0-----------------------------------------0------------------------------2----------------------------------------
      6------------------------------------------------------------------------------0--------------------------------------------

        Aunque  te  acuestes   con el sol
      1---------------------------------------------------------------------------------------------------------------------------
      2----------------------2---------------------------------------4---------------------------------------------0------------
      3-----------------2---------------------------------------4-------4------------------------1----------------------2 ------
      4-------------2----------------------------------------4--------------------------------2-------2-----------------------2-
      5--------0-----------------------------------------0------------------------------2----------------------------------------
      6------------------------------------------------------------------------------0--------------------------------------------


        No hay mas estrellasque lasque   dejes brillar
      1---------------------------------------------------------------------------------------------------4----------------------------
      2----------------------2---------------------------------------4--------------------------------------------------------5-----4-
      3-----------------2---------2-----------------------------4-------4----------------------------4--------------------6- --------
      4-------------2----------------------------------------4----------------------------------4----------------------6--------------
      5--------0-----------------------------------------0----------------------------------6---------------------4-------------------
      6----------------------------------------------------------------------------------4---------------------------------------------

        Tendrá el cielotu    color   
      1---------------------------------------------------------------------------------------------------------------------------
      2----------------------2---------------------------------------4---------------------------------------------0------------
      3-----------------2---------------------------------------4-------4------------------------1----------------------2 ------
      4-------------2----------------------------------------4--------------------------------2-------2-----------------------2-
      5--------0-----------------------------------------0------------------------------2----------------------------------------
      6------------------------------------------------------------------------------0--------------------------------------------


Piano:
          Aunque  te  Abraces   A  LA luna

  Agudos: MI  LA   DO# FA#  SI  RE#  SI  MI  SOL#  SI  MI SI  LA  MI
    
  Graves:    lala MI

 Aunque  te  acuestes   con el sol

  Agudos: MI  LA   DO# FA#  SI  RE#  SI  MI  SOL#  SI  MI SI  LA  MI   MI
    
  Graves:    lala MI

  No hay mas estrellasque lasque   dejes brillar

 Agudos:    MI  LA   DO# FA#  SI  RE#  SI   SOL# SI  RE#  SOL#  DO#  MI  RE#  DO#
    
  Graves:    LA  LA SOL#  DO#  

   Tendrá el cielotu    color

  Agudos: MI  LA   DO# FA#  SI  RE#  SI  MI  SOL#  SI  MI SI  LA  MI   MI
    
  Graves:    LA    lami


Estrofa 2:

   No estés solo en esta lluvia

      1------------------------------------------------------------------------------------------------------------------------
      2-----------------------------------------------------2------------------------------4-------------------------4-------
      3---------------------1---------------------------2-------2--------------------4-------4---------------4----------4--
      4----------------2---------2-----------------2---------------------------4--------------------------4-----------------
      5-----------2----------------------------0---------------------------2---------------------------0--------------------
      6------4-------------------------------------------------------------------------------------------------------------


    No te    entreguespor favor
  1------------------------------------------------------------------------------------------------------------------------
      2-----------------------------------------------------2------------------------------4-------------------------4-------
      3---------------------1---------------------------2-------2--------------------4-------4---------------4----------4--
      4----------------2---------2-----------------2---------------------------4--------------------------4-----------------
      5-----------2----------------------------0---------------------------2---------------------------0--------------------
      6------4-------------------------------------------------------------------------------------------------------------

  Si debes ser   fuerte  en estostiempo
  1------------------------------------------------------------------------------------------------------------------------
      2--------------------------------------------------------------------------------2-------2----------------------------
      3-------------------------------------------1----------1------------------------2-------2------------------------
      4----------------------------------------- -2-----------2-----------------------2-------2--------------------------
      5------------------------------------------2------------2-----------------------0-------0--------------------------
      6------------------------------------------4------------4-----------------------------------------------------------

Para   resistir  la  decepción
  1------------------------------------------------------------------------------------------------------------------------
      2--------------------------------------------------------------------------------2-------2----------------------------
      3-------------------------------------------1----------1------------------------2-------2------------------------
      4----------------------------------------- -2-----------2-----------------------2-------2--------------------------
      5------------------------------------------2------------2-----------------------0-------0--------------------------
      6------------------------------------------4------------4-----------------------------------------------------------


  y quedaras abierto    en mente y alma
  1------------------------------------------------------------------------------------------------------------------------
      2--------------------------------------------------------------------------------2-------2----------------------------
      3-------------------------------------------1----------------------------------2-------2------------------------
      4----------------------------------------- -2----------------------------------2-------2--------------------------
      5------------------------------------------2-----------------------------------0-------0--------------------------
      6------------------------------------------4-----------------------------------------------------------------------


yoestoy    con vos 
  1------------------------------------------------------------------------------------------------------------------------
      2----------------------------------4----------------------------0----------------------------------------------------
      3----------------------------------4-----------------1-------------2------------------------------------------
      4---------------------------------4------------------2-----------------2----------------------------------------
      5--------------------------------2-------------------2-------------------------------------------------------------
      6----------------------------------------------------0---------------------------------------------------------------


Piano:

 No estés solo en esta lluvia
    
    SOL#  SI  MI  LA  DO#  MI  FA#  SI  RE#   FA#  SI  RE#
  SOL#   LA  SI LA

 No te    entreguespor favor

    SOL#  SI  MI  LA  DO#  MI  FA#  SI  RE#   FA#  SI  RE#
  SOL#   LA  SI LA

Nota: los demás son acordes graves enteros


Estrofa 3:
          A  B/A    G#m C#m
 Si te hace falta quien te trate con amor
  A    A/BG#m   C#m  
 Si no tenés a quien brindar tu corazón
  A   A/BG#m    C#m 
 Si todo vuelve cuando más lo precisas
 A  A/B   E Esus4   
 Nos veremos otra vez

Piano:DO#  LA  MI

   (Teclas/viento)   A  B/A    G#m C#m
 Si te hace falta quien te trate con amor
 A    B/Ag#m   C#m  
 Si no tenés a quien brindar tu corazón
 A   B/Ag#m    C#m 
 Si todo vuelve cuando más lo precisas
 A  B/A   E Esus4   
 Nos veremos otra vez

Nota: las notas de la guitarra son como en la primera estrofa

Acá Charly no toca el piano sino un teclado con un instrumento de viento u órgano y al 
final del C#m so solfea en forma decreciente y engancha en la.

Solo de Charly:

Organo:    SI  LA   SI   LA  MI 

Piano: SI MI  RE#  DO#  SI  RE# SI  MI   SI MI  RE#  DO#  SI  RE#


Después las dos estrofas que siguen repiten los acordes de la 2 y 3 respectivamente, 
cambiando solamente algunos graves del piano por órgano y versos con la guitarra sola 
que no son difíciles de diferencias.

NOTA: A MI NADIE ME ENSEÑO A TOCAR NI EL PIANO NI LA GUITARRA, PERO PARA MI SUENA ASI. 
ADEMAS ES EL PRIMER TEMA QUE TERMINO DESPUES DE HABER TOCADO EL PRINCIPIO.

Agradezco a José Iván Cubillos por el apoyo moral.
Suggest correction
Give kudos to tab author, rate the tab!
1 2 3 4 5
comments
print report bad tab
guest
Wanna post a correction for this tab? Suggest correction