Oops, an error
Loading. Please wait.

Parado En El Medio De La Vida Bass Tab

90 views 1 this week
no commentswrite comment
1 2 3 4 5
2 more votes to show rating
add to favorites
launch autoscroll
font size
0
reset
guitar tuner
Autoscroll
slow
fast
+/-
esc
set tempo
stop
Help us to improve Ultimate-Guitar.com Take our survey!
×
PARADO EN EL MEDIO DE LA VIDA

    G                D            A        E
    Que estamos esperando    para recibir amor;
G-------------------------------------------------
D---5----5------------------------7----7----------
A-------------------5------5---------------7?-7-9-
E-------------------------------------------------


     F                G                    A      F
     Con los ojos cerrados       me ves mejor,
G----2----------------4-----------------------------
D----3----------------5--------------------7-7/5p-3-*3veces
A---------------------------------------------------
E---------------------------------------------------

     E              G#m           A9       C   D
     Y aqui yo me siento muy muy bien,
G---------------------------------14--------------
D----6--------------9-------------14----9-10---12-*2veces
A----7--------------11------------12?12-----------
E-------------------------------------------------

     E            G#m   D          A
     Y yo se que todos son igual a mi,
G-----------------------11---------6-------------
D----6------------9-----12---------7---776767677-
A----7------------11-----------------------------
E------------------------------------------------

     D                                         A
     el alma, sus ojos, sus manos  son igual a mi.
G----11----------------------------------------6-------------
D----12----------------------------------------7---776767677?
A------------------------------------------------------------
E------------------------------------------------------------

     D                                          A
     El alma, sus ojos, sus manos,  son igual a mi...
G----11-----------------------------------------14-
D----12-----------------------------------------14-
A-----------------------------------------------12-
E--------------------------------------------------


Bueno el tema es facil, el bajo en la versión de estudio se
Escucha bien, en la versión en vivo del teatro coliseo, no
Tiene bajo. Esta base es muy buena para acompañar a la guitarra
Cualquier duda, consulta o sugerencia, mi mail es el que aparece
arriba o entren a  , que es el
Fotolog de mi banda.
Suggest correction
Give kudos to tab author, rate the tab!
1 2 3 4 5
comments
print report bad tab
guest
You may want to rate the tab now too:
select rating
Wanna post a correction for this tab? Suggest correction