Oops, an error
Loading. Please wait.

Viernes 3 Am Bass

version 1
version 1

Whole song

146 views 1 this week
no commentswrite comment
1 2 3 4 5
3 more votes to show rating
add to favorites
launch autoscroll
font size
0
reset
guitar tuner
×
Best way to learn
"Viernes 3 AM"
Autoscroll
slow
fast
+/-
esc
set tempo
stop
corrección de la transcripción de Martín Rey ( tincho@ )

"..El sueño de un sol.." (1:00):

g-----------------------------------------
d------3--3---------10--------------------
a-5--5------3--3/10-----5--5------3--3/73
E----------------------------1--1---------

"..te hace bien.." (1:20):

g-11/15--11/12----11/19-17--12/1412
d-----------------------------------
a-----------------------------------
E-----------------------------------

"..cambiaste de tiempo.." (1:45):

g---------------17-----19-19-17-------------17----------------
d--------14-15-----------------------14-15---------15-14------
a-10/17------------15------------17------------15--------15/10
E-------------------------------------------------------------

"..y llevas el caño a tu sien.." (2:26):

g----------------------------------------------------------------
d--------14-15-17-----17--12/14-12/14------14-15--19-17-----12-14
a-10/17------------15------------------17---------------15-------
E----------------------------------------------------------------

"..bang, bang, bang..." (2:45):

g-11/15--11/12----------------------------11/19-20--12/1412
d---------------15--12-13-12--------------------------------
a----------------------------15-13-12-----------------------
E-------------------------------------15--------------------

solo del final (3:08):

g----------14--------17--------19-----14--14--------------------
d----12-14-----14/17-----17/19-----17--------17--16-14----------
a-14---------------------------------------------------17-15----
E------------------------------------------------------------15-


g--------------------------17-19-14-12-12
d-------15-------19--12/14---------------
a-11/12----12/15-------------------------
E----------------------------------------


g-------12-14-14/19-17/19-17/19-17
d-12/14---------------------------
a---------------------------------
E---------------------------------

fin
Suggest correction
Give kudos to tab author, rate the tab!
1 2 3 4 5
comments
print report bad tab
guest
You may want to rate the tab now too:
select rating
Wanna post a correction for this tab? Suggest correction